Song name
# A B C D E F G H I J K L M N O P Q R S T U V W X Y Z

40 Below Summer - Untied tab

40 Below Summer: Untied
Tabbed by 2Fisted
Tuning: drop B

*starts off with just bass*
Verse(clean, notes get very faint later)
---------------------------------------|
---13----------13--15p13---15p13-------|
-------14-----------------------14-----|
-12----------12---------12--------12~--|
---------------------------------------|
---------------------------------------|

--------------------------------------------------|
---13----------13---15p14p12------15p14p12--------|
-------14--------14---------151514--------131312--|
-12----------12-----------------------------------|
--------------------------------------------------|
--------------------------------------------------|
Pre-Chorus(clean with slight wah)
--------------------------|
--------------------------|
-5-555--------------------|
-5-555-0------------------|
-3-333-0strum lightly-----|
-------0------------------|
Chorus(dist.)
------------   |---------------|
------------   |---------------|
------------   |---------------|
-10-10-0~---X3 |-10-6-0~-------|
-10-10-0~---   |-10-6-0~-------|
-10-10-0~---   |-10-6-0~-------|
~The Interlude and Outro are together, and they are the pre-chorus
with some higher notes that I'm not going to tab.~
Tap to rate this tab
# A B C D E F G H I J K L M N O P Q R S T U V W X Y Z