Song name
# A B C D E F G H I J K L M N O P Q R S T U V W X Y Z

40 Below Summer - Jonesin tab

Help us improve GuitareTab! Take a short survey!
Intro

C# |-------------------------------------------|
G# |-------------------------------------------|
E  |-------------------------------------------|
B  |-------------------------------------------|
F# |-------------------------------------------|
B  |--2-2-3-2-2-4-2-2-3-2-2-4-2-2--------------|

Verse

C# |----------------------------------------------------|
G# |----------------------------------------------------|
E  |----------------------------------------------------|
B  |-----------------------------------2-3-2--2-3-2-----|
F# |--7-h8-p7-h10-p7-7-h8-p7-h10-p7-7--2-3-2--2-3-2-----| x4
B  |-----------------------------------2-3-2--2-3-2-----|

1rst Chorus

C# |-------------------------------------------|
G# |-------------------------------------------|
E  |-------------------------------------------|
B  |--3-2-3-5-3--3/4\3--3/4\3--3-2-3-----------|
F# |--3-2-3-5-3--3/4\3--3/4\3--3-2-3-----------|
B  |--3-2-3-5-3--3/4\3--3/4\3--3-2-3-----------|

2nd Chorus

C# |------------------------------------------------|
G# |------------------------------------------------|
E  |-----------7-----------7-7-5-5-5-5-4-4-4-4------|
B  |--0-0-0-0--7--0-0-0-0--7-7-5-5-5-5-4-4-4-4------|
F# |--0-0-0-0--5--0-0-0-0--5-5-3-3-3-3-2-2-2-2------|
B  |--0-0-0-0-----0-0-0-0---------------------------|

Bridge

C# |----------------------------------------------|
G# |----------------------------------------------|
E  |----------------------------------------------|
B  |--0-0-0-0--5-4-3-0--5-4-3-0--5-4-0-3-4-5------|
F# |--0-0-0-0--5-4-3-0--5-4-3-0--5-4-0-3-4-5------|
B  |--0-0-0-0--5-4-3-0--5-4-3-0--5-4-0-3-4-5------|
Related for Jonesin tab