Song name
# A B C D E F G H I J K L M N O P Q R S T U V W X Y Z

403 Forbiddena - Southern Cross tab

-------------------------------------------------------------------------------
                             Southern Cross - 403 Forbiddena
-------------------------------------------------------------------------------
Tabbed by:I&guitars22802

E-mail:drakorthedragon@gmail.com

Tuning:Standard

links saying this is a real band:
http://www.facebook.com/pages/403-Forbiddena/38871055683
http://www.myspace.com/403forbiddena
http://www.tumblr.com/tagged/403%20forbiddena

the beginning is 6/8 time, and is also part piano. It starts when the singer 
starts singing, after the intro southern cross.

(clean 0:14)
e|----------------------------------------------------------------------------------------------------|
B|-------7--------------------------------------7-------------------------7---------------------------|
G|-----8---8----------8------------7----------8---8----------8----------8---8-------------------8-----|
D|---8-------8------9---9--------8---8------8-------8------9---9------8-------8------9------8---8-----|
A|-6--------------9-------9----8-------8--6--------------9-------9--6--------------9------8-----6-----|
E|--------------7------------6-------------------------7-------------------------7------6-------------|

(distortion)
Verse 1 (4/4)
e|----------------------------------------------------------------------------------------------------|
B|----------------------------------------------------------------------------------------------------|
G|8888--8-6-8--------------8-6-8---------8-----8-6-8--XX--11----11------------------------------------|
D|8888--8-6-8--9999--8888--8-6-8---99-88-8-88--8-6-8--XX--11-11-11--99----88888888---6666--8888-------|
A|6668--6-4-6--9999--8888--6-4-6---99-88-6-88--6-4-6--XX---9-11--9--99----88888888---6666--8888-------|
E|-------------7777--6666----------77-66---66-----------------9-----77----66666666---4444--6666-------|

Chorus1
e|----------------------------------------------------------------------------------------------------|
B|----------------------------------------------------------------------------------------------------|
G|88888888--------------------------------------------------------------------88888888----------------|
D|88888888--8888-9999--10---55555555--6666-8888-5555-10---66666666-88888888---88888888--8888-8888-10--|
A|66666666--8888-9999--10x8-55555555--6666-8888-5555-10x4-66666666-88888888---66666666--8888-8888-10x8|
E|----------6666-7777---8---33333333--4444-6666-3333--8---44444444-66666666-------------6666-7777--8--|

e|---------------------------------------------------------------------------|
B|---------------------------------------------------------------------------|
G|------------------------------------------888888888------------------------|
D|55555555--6666-8888-5555-10---6666-8888---888888888------------------------|
A|55555555--6666-8888-5555-10x4-6666-8888---666666666------------------------|
E|33333333--4444-6666-3333--8---4444-6666------------------------------------|

Guitar break
e|----------------------------------------------------------------------------------------------------|
B|----------------------------------------------------------------------------------------------------|
G|8888---------------------8888-----------8888---------------------8888----------888888888------------|
D|8888-9999-11---8888-9999-8888-9999-8888-8888-9999-11---8888-9999-8888-88888888-888888888------------|
A|6666-9999-11x4-8888-9999-6666-9999-8888-6666-9999-11x4-8888-9999-6666-88888888-666666666------------|
E|-----7777--9---6666-7777------7777-6666------7777--9---6666-7777------66666666----------------------|

Verse 2
e|----------------------------------------------------------------------------------------------------|
B|----------------------------------------------------------------------------------------------------|
G|8888--8-6-8--------------8-6-8---------8-----8-6-8--XX--11----11------------------------------------|
D|8888--8-6-8--9999--8888--8-6-8--99--88-8-88--8-6-8--XX--11-11-11-99--88888888---6666--8888----------|
A|6666--6-4-6--9999--8888--6-4-6--99--88-6-88--6-4-6--XX---9-11--9-99--88888888---6666--8888----------|
E|-------------7777--6666---------77--66---66-----------------9----77--66666666---4444--6666----------|

Chorus 2
e|----------------------------------------------------------------------------------------------------|
B|----------------------------------------------------------------------------------------------------|
G|88888888--------------------------------------------------------------------88888888----------------|
D|88888888--8888-9999--10---55555555--6666-8888-5555-10---66666666-88888888---88888888--8888-8888-10--|
A|66666666--8888-9999--10x8-55555555--6666-8888-5555-10x4-66666666-88888888---66666666--8888-8888-10x8|
E|----------6666-7777---8---33333333--4444-6666-3333--8---44444444-66666666-------------6666-7777--8--|

e|---------------------------------------------------------------------------|
B|---------------------------------------------------------------------------|
G|------------------------------------------888888888------------------------|
D|55555555--6666-8888-5555-10---6666-8888---888888888------------------------|
A|55555555--6666-8888-5555-10x4-6666-8888---666666666------------------------|
E|33333333--4444-6666-3333--8---4444-6666------------------------------------|

Pre-Solo
e|---------------------------------------------------------------------------|
B|---------------------------------------------------------------------------|
G|55555555--------------------5555-------55555555-------------------5555-----|
D|55555555-66666666-55555555--5555-55-55-55555555-66666666-55555555-5555--5--|
A|33333333-66666666-55555555--3333-55-55-33333333-66666666-55555555-3333--5--|
E|---------44444444-33333333-------33-33----------44444444-33333333-------3--|

Solo (gonna have to listen to the song to get the strumming) 
e|------------------------------11-13-14-16-19-18-16h18p16-14-13-11----------|
B|13-15-16-18/21-20-18-16-15-13----------------------------------------------|
G|---------------------------------------------------------------------------|
D|---------------------------------------------------------------------------|
A|---------------------------------------------------------------------------|
E|---------------------------------------------------------------------------|


e|11-13-14-11-13-14-16-13-14-16-18-16-18-19-17-18~---------------------------|
B|---------------------------------------------------------------------------|
G|---------------------------------------------------------------------------|
D|---------------------------------------------------------------------------|
A|---------------------------------------------------------------------------|
E|---------------------------------------------------------------------------|

this part is the rythem of the solo, each chord is a half note each
e|---------------------------------------------------------------------------|
B|---------------------------------------------------------------------------|
G|---5---5-----8---8---------------------------------------------------------|
D|6--5-5-5--9--8-8-8--9-11-13-9--8~------------------------------------------|
A|6--3-5-3--9--6-8-6--9-11-13-9--8~------------------------------------------|
E|4----3----7----6----7--9-11-7--6~------------------------------------------|

bridge is almost the same as the intro, but you move up 4 frets(clean and 6/8)                
e|------------------------------------------------------------------------------------------------|
B|---------11--------------------------------------------------11---------------------------------|
G|------12----12------------12---------------11-------------12----12------------12----------------|
D|---12---------12-------13----13---------12----12-------12----------12-------13---13-------------|
A|10------------------13---------13----12----------12-10-------------------13---------13----------|
E|-----------------11---------------10----------------------------------11------------------------|

                                         (v this part starts back the 4/4 plus dist.)
e|---------------------------------------------------------------------------|
B|-------11------------------------------------------------------------------|
G|-----12--12----------------------12----------------------------------------|
D|--12-------12-------13-------12--12----10---12-----------------------------|
A|10---------------13-------12-----10----10X4-12X44--------------------------|
E|--------------11-------10---------------8---10-----------------------------|



Chorus 3
e|---------------------------------------------------------------|
B|---------------------------------------------------------------|
G|12---------------------------------------------------12--------|
D|12x8-12---13---14---9---10---12---9---14---10---12---12x8-12---|
A|10---12x4-13x4-14x8-9x8-10x4-12x4-9x4-14x4-10x8-12x8-10---12x4-|
E|-----10---11---12---7----8---10---7---12----8---10--------10---|

---------------------------------------------|
---------------------------------------------|
---------------------------------------------|
13---14---9---10---12---9---14---10---12-----|
13x4-14x8-9x8-10x4-12x4-9x4-14x4-10x4-12x4---|
11---12---7----8---10---7---12----8---10-----|


Outro
e|--------------------------------------------------------------------|
B|--------------------------------------------------------------------|
G|12---------------------------------------------------12-------------|
D|12x8-12---13---14---9---10---12---9---14---10---12---12x8-12---13---|
A|10---12x4-13x4-14x8-9x8-10x4-12x4-9x4-14x4-10x8-12x8-10---12x4-13x4-|
E|-----10---11---12---7----8---10---7---12----8---10--------10---11---|

--------------------------------------------|
--------------------------------------------|
--------------------------------------12----|
14---9---10---12---9---14---10---12---12x8--|
14x8-9x8-10x4-12x4-9x4-14x4-10x4-12x4-10----|
12---7----8---10---7---12----8---10---------|

e|---------------------------------------------------------------------------|
B|---------------------------------------------------------------------------|
G|12~------------15-14-12---7---8----8/15-15---------------------------------|
D|12~-12~-13--15-15-14-12x8-7x8-8x12-8/15-15x4-------------------------------|
A|10~-12~-13--15-13-12-10---5---6----6/13-13---------------------------------|
E|----10~-11--13-------------------------------------------------------------|
                                            (slide down optional at end)
Thank you for reading! please critique!!!

************************************

| /   slide up
| \   slide down
| h   hammer-on
| p   pull-off
| ~   vibrato
| +   harmonic
| x   Mute note
| b   Bend
| pb  Pre-bend
| br  Bend release
| pbr Pre-bend release
| brb Bend release bend
Tap to rate this tab
# A B C D E F G H I J K L M N O P Q R S T U V W X Y Z