Song name
# A B C D E F G H I J K L M N O P Q R S T U V W X Y Z

41st And Home - Sleeper tab

Song: Sleeper
Arist: 41st and Home
Album: Left In Places

Standard Tuning
Capo 4


Intro/Tab:

e|--------------------------------------------------|
B|--1-----1-----1-----1-----1-----1-----1-----1-----|
G|----0-----0-----0-----0-----0-----0-----0-----0---|
D|--------------------------------------------------|
A|--------------------------------------------------|
E|--0---0-0---0-0---0-0---0-1---1-1---1-1---1-1---1-|

e|--------------0-----------------------------------|
B|--1-----1-----------1-----3-----1-----3-----1-----|
G|----0-----0-----0-----0-----0-----0-----0-----0---|
D|--------------------------------------------------|
A|--------------------------------------------------|
E|--3---3-3---3-3---3-3---3-3---3-3---3-3---3-3-----|


Chords:
    C                       F
e|--------------------------------------------------|
B|--1-----1-----1-----1-----1-----1-----1-----1-----|
G|--0-----0-----0-----0-----0-----0-----0-----0-----|
D|--2--2--2--2--2--2--2--2--x--x--x--x--x--x--x--x--|
A|--3--3--3--3--3--3--3--3--3--3--3--3--3--3--3--3--|
E|--0--0--0--0--0--0--0--0--1--1--1--1--1--1--1--1--|
    G/C                       G/C
e|--------------0-----------------------------------|
B|--1-----1-----1-----1-----3-----1-----3-----1-----|
G|--0-----0-----0-----0-----0-----0-----0-----0-----|
D|--0--0--0--0--0--0--0--0--0--0--0--0--0--0--0--0--|
A|--2--2--2--2--2--2--2--2--2--2--2--2--2--2--2--2--|
E|--3--3--3--3--3--3--3--3--3--3--3--3--3--3--3--3--|

C               F            G/C       G/C
Change comes to all of us my friend
C               F            G/C       G/C
Change comes to find us in the end...


Outro:
    
e|--------------------------------------------------|
B|--1-----1-----1-----1-----1-----1-----1-----1-----|
G|----0-----0-----0-----0-----0-----0-----0-----0---|
D|--------------------------------------------------|
A|--------------------------------------------------|
E|--0---0-0---0-0---0-0---0-0---0-0---0-0---0-0---0-|

End on C





Myspace: http://www.myspace.com/41standhomemusic

Tab by eskimoTea
Tap to rate this tab
 
# A B C D E F G H I J K L M N O P Q R S T U V W X Y Z