Song name
# A B C D E F G H I J K L M N O P Q R S T U V W X Y Z

4lyn - Feel Me tab

Artist:4Lyn
Song:Feel Me
Album:4Lyn
Tabber:mrbraz
Tuning:Drop B(B,fis,B,E,gis,cis)

Hey ya!!! Wish ya a happy new year!!! 2007īs gonna rock!!!
Hereīs another kick-ass song from my favourites!!! 
Send comments to:mrbraz@web.de. Please rate!!!
Stay sick!!!

Intro  (bass arranged for guitar)
G|---------------------------------------------------|
D|---------------------------------------------------|
A|---------------------------------------------------|
E|---------------------------------------------------|
B|--0--13-12-0-12--13-12-0---0--13-12-0-12--13-12-0--|


Verse (bass plays intro riff ,the guitar plays this with delay and phaser)
|--17~~-----17~~-----17~~-----17~~-------|
|-----15~~-----15~~-----15~~-----15~~----|
|----------------------------------------|work out the 
|----------------------------------------|timing
|----------------------------------------|
|----------------------------------------|
Brompton City bashin`...


|-----17-18-17------------17-18-17------------17-18-17---------|
|--15----------15------15----------15------15----------15------|
|--------------------------------------------------------------|
|--------------------------------------------------------------|
|--------------------------------------------------------------|
|--------------------------------------------------------------|

Then
|--------------------------------------------------------------------------|
|--------------------------------------------------------------------------|
|--------------------------------------------------------------------------|
|-xxxx11h12-x11h12-xxx11h12--xxxx11h12-x11h12-xxx11h12--121212121212121212-|
|--------------------------------------------------------------------------|
|--------------------------------------------------------------------------|

Chorus
|------------------------------|
|------------------------------|
|------------------------------|work out the
|--0~~~---2~~~---3~~~---5~~~---|timing
|--0~~~---2~~~---3~~~---5~~~---|
|--0~~~---2~~~---3~~~---5~~~---|
Now if ya feel me.....

|----------------|
|----------------|
|----------------|
|-0~~~~~~~-------|
|-0~~~~~~~-------|
|-0~~~~~~~-------|

Play Verse
Play Chorus

Bridge
|-------------------------------------------------------------|
|-------------------------------------------------------------|
|-------------------------------------------------------------|*(play 
|-----------------------7*-7*----------------------7*---5*----|  Harmonics)
|--2-0-2-0--3--2-0--3-3---------0-2-0--3--2-0--3-3------------|
|--2-0-2-0--3--2-0--3-3---------0-2-0--3--2-0--3-3------------|

|--------------------------------------------------------|
|--------------------------------------------------------|
|--------------------------------------------------------|
|-----------------------7*-7*----------------------------|
|--2-0-2-0--3--2-0--3-3---------0-2-0--3--2-0--3-3-------|
|--2-0-2-0--3--2-0--3-3---------0-2-0--3--2-0--3-3--3b---|

|-------------------------------------------------------------|
|-------------------------------------------------------------|
|-------------------------------------------------------------|
|-----------------------7*-7*----------------------7*---5*----|
|--0-2-0--3--2-0--3-3---------0-2-0--3--2-0--3-3--------------|
|--0-2-0--3--2-0--3-3---------0-2-0--3--2-0--3-3--------------|

|-----------------------------|
|-----------------------------|
|-----------------------------|
|--0~~~~~---0x0~~~~~----------|
|--0~~~~~---0x0~~~~~----------|
|--0~~~~~---0x0~~~~~----------|


"Bo-Digga" part                               End up with
|-------------------------------------------|----------------------|
|-------------------------------------------|----------------------|
|-------------------------------------------|----------------------|
|-------------------------------------------|----------------------|
|-------------------------------------------|----------------------|
|--12-13-0--0-12-13-0--0-12-13-0-repeat-x?--|------0-12-13-0--13b--|

Back to Chorus
|------------------------------|
|------------------------------|
|------------------------------|
|--0~~~---2~~~---3~~~---5~~~---|
|--0~~~---2~~~---3~~~---5~~~---|
|--0~~~---2~~~---3~~~---5~~~---|
Now if ya feel me.....

Ending
|--------------------------------------------------------------------------|
|--------------------------------------------------------------------------|
|--tremolo picking---------------------------------------------------------|
|--12121212121212121212b12b12b12b12b12b12b----0-3-3-3-2-0-0--0-3-3-3-2-0-0-|
|---------------------------------------------0-3-3-3-2-0-0--0-3-3-3-2-0-0-|
|---------------------------------------------0-3-3-3-2-0-0--0-3-3-3-2-0-0-|
repeat until the end

Hope ya like this. Itīs pretty easy so you shouldnīt spend much time on it.
Keep rockinī!!!!!!!!!!!

Lyrics
Brompton city bashin, car crashin, bong blastin
itīs the alcohol abusin white trash kid.
With the mad vocalism, straight from the top of my lung
shout outs and respect to the place where im coming from.
So here me run again, head to the finish,
no time for loosin, no time for cruisin
cuz the champions got to keep on movin.
Like soul 2 soul, im back to life for real still a mc
with lots of love for my holy wheels of steele, yo.
To me it was a big step, futurewards
from doinboogaloo thangs at the "barmbek-boulevard".
To pick up the mic and say what the fukk I was born for
free to the dom is still the only thing I star for.

Would die for, would cry for, but not spy for
i still got the same type of respect even for all you fly whores.
Donīt get me wrong, I really love your bitchness
the only fukks I disrespect are bitches in the music-business.

Chorus
And if you feel me put your hands up ,(hands in da sky)!!
and if you feel me put em high,(put em high)!!
Push 4 fingers and a L in da air,yo and wave em around like u just dont care

There goes the 1 - 2 - 3 - 4lyn
I make it happen, I make them phoney rappers stop their crap.
I let my dogs do the freak and put Brompton city on the map,yo!
If theres a problem, I fix it, like p.e. and anthrax
i "bring the noise" and press it on a black piece of wax.
Give me a grin when you see me pass you by
im not pretty fly for a white but for a 4lyn-guy.
Iīm smooth like the butt of a babe
and well known for all the panic that I create when im out on stage.

"Trouble maker"," problem child" is what these mothers title me
and daddies want to fight me but like Spike Lee.
Iīm doin the right thing, drinking a cup of tea, im smoking a blunt
I`m fukkin them daughters in their butts and leave this chikks "rest in pussy"

Chorus
And if you feel me put your hands up ,(hands in da sky)!!
and if you feel me put em high,(put em high)!!
Push 4 fingers and a L in da air,yo and wave em around like u just dont care

Breakdown

So,whatcha want me to do?
(Kane:)"Yo Braz, Do The Sikk Shit!"
Right!!!!!!!!!
Bo-Digga-Bo-Digga-Bo-Digga-Bo!!!!

Chorus
And if you feel me put your hands up ,(hands in da sky)!!
and if you feel me put em high,(put em high)!!
Push 4 fingers and a L in da air,yo and wave em around like u just dont care

Like u just don t care!!!

Like u just don t care!!!






Tap to rate this tab
# A B C D E F G H I J K L M N O P Q R S T U V W X Y Z