Guitaretab - guitar tabs
Song name
# A B C D E F G H I J K L M N O P Q R S T U V W X Y Z

4lyn - Pearls Beauty tab

Artist: 4Lyn
Song: Pearls & Beauty
Album: Neon
Tabber: mrbraz
Tuning: Drop Db (Db,Ab,Db,Gb,Bb,Eb)

Heres the 1st guitar tab of Pearls & Beauty. Hope I done right

Intro

Riff 1 (clean with delay and Phaser)

|----------------------------------------------------|
|----------------------------------------------------|
|----------------------------------------------------|
|-12----12----12-----15-14-15-14-15-14-15-14-15-14---|
|----10----10----10----------------------------------|
|----------------------------------------------------|
  .  .  .  .  .  .    .  .  .  .  .  .  .  .  .  .

|--------------------------------------------------|
|--------------------------------------------------|
|--------------------------------------------------|
|-12---12---12-----15-14-15-14-15-14-15-14-15-14---|
|----8----8----8-----------------------------------|
|--------------------------------------------------|
  .  .  . .  . .    .  .  .  .  .  .  .  .  .  

Riff 2

|---------------------------------------------------------------|
|---------------------------------------------------------------|
|---------------------------------------------------------------|
|-0~-3~~~~(3)~----0~-3~~~~(3)~----0~-3~~~~(3)~----0~-3~~~~(3)~--|
|-0~-3~(3)~~~~----0~-3~(3)~~~~----0~-3~(3)~~~~----0~-3~(3)~~~~--|
|-0~-3~~~~~~~~----0~-3~~~~~~~~----0~-3~~~~~~~~----0~-3~~~~~~~~--|


Verse

(use delay and phaser effects)
|---------------------------------------------------|
|---------------------------------------------------|
|---------------------------------------------------|
|-12----12----12-----15-14-15-14-15-14-15-14-15-14--|
|----10----10----10---------------------------------|
|---------------------------------------------------|
   .  .  .  .  .  .   .  .  .  .  .  .  .  .  .  

Every morning I wake up and Im laying next to you...

|----------10----------10~~--|
|-------10-------------10~~--|
|----12----------------12~~--|
|-12-------------------12~~--|
|----------------------------|
|----------------------------|

I wanna thank god and the devil for sendin you

Pre Chorus
(im not sure but this comes very close to that what Russo plays)
(with phaser) 
|---------------------------------------------------------------------10~-|
|-10h12//17b19----10h12//19p17h19p17h19p17----10h12//17b19----10h12---10~-|
|---------------------------------------------------------------------12~-|
|---------------------------------------------------------------------12~-|
|-------------------------------------------------------------------------|
|-------------------------------------------------------------------------|

What we got is so special...

Chorus

|--------------------------------------------|
|--------------------------------------------|
|--------------------------------------------|listen to the song to get the
|-3-3--3333333h55--000000000--3333333-55555--|right timing
|-3-3--3333333h55--000000000--3333333-55555--|
|-3-3--3333333h55--000000000--3333333-55555--|
  . .

Because Im nothing...

|------------------------------------|
|------------------------------------|
|------------------------------------|
|------------------------------------|
|---------------0-0-----5-5-----3-3--|
|-0-0--5-5--3-3-----0-0-----5-5------|
  . .       . .     . .     . .

Bridge1

|-----------------------------------------|
|-----------------------------------------|
|-----------------------------------------|
|----------------2-2-------7-7-------5-5--|
|-0-0--5-5--3-3--0-0--0-0--5-5--5-5--3-3--|
|-0-0--5-5--3-3-------0-0-------5-5-------|
  . .       . .       . .       . .

Verse 2

(use delay and phaser effects)
|---------------------------------------------------|
|---------------------------------------------------|
|---------------------------------------------------|
|-12----12----12-----15-14-15-14-15-14-15-14-15-14--|
|----10----10----10---------------------------------|
|---------------------------------------------------|
   .  .  .  .  .  .   .  .  .  .  .  .  .  .  .  

Since Ive known you my world is perfect

|----------10----------10~~--|
|-------10-------------10~~--|
|----12----------------12~~--|
|-12-------------------12~~--|
|----------------------------|
|----------------------------|

What have I done to deserve you?!


Chorus

|--------------------------------------------|
|--------------------------------------------|
|--------------------------------------------|
|-3-3--3333333h55--000000000--3333333-55555--|
|-3-3--3333333h55--000000000--3333333-55555--|
|-3-3--3333333h55--000000000--3333333-55555--|
  . .

Because Im nothing...
[ Tab from: http://www.guitaretab.com/numeric/4lyn/82565.html ]
|------------------------------------|
|------------------------------------|
|------------------------------------|
|------------------------------------|
|---------------0-0-----5-5-----3-3--|
|-0-0--5-5--3-3-----0-0-----5-5------|
  . .       . .     . .     . .

Bridge1

|-----------------------------------------|
|-----------------------------------------|
|-----------------------------------------|
|----------------2-2-------7-7-------5-5--|
|-0-0--5-5--3-3--0-0--0-0--5-5--5-5--3-3--|
|-0-0--5-5--3-3-------0-0-------5-5-------|
  . .       . .       . .       . . 

|-----------------------------------------|
|-----------------------------------------|
|-----------------------------------------|
|----------------2-2-------7-7-------5-5--|
|-0-0--5-5--3-3--0-0--0-0--5-5--5-5--3-3--|
|-0-0--5-5--3-3-------0-0-------5-5-------|
  . .       . .       . .       . .

Bridge2

|-10~~~-(10)~~-(10)~~-(10)~~--14h15p14h15p14h15p14//12----------|
|-10~~~-(10)~~-(10)~~-(10)~~-----------------------------10~~~--|
|-12~~~-(12)~~-(12)~~-(12)~~-----------------------------12~~~--|
|-12~~~-(12)~~-(12)~~-(12)~~-----------------------------12~~~--|
|--------------------------------------------------------10~~~--|
|---------------------------------------------------------------|

Yo your spirit is beautifull.......


Chorus

|--------------------------------------------|
|--------------------------------------------|
|--------------------------------------------|
|-3-3--3333333h55--000000000--3333333-55555--|
|-3-3--3333333h55--000000000--3333333-55555--|
|-3-3--3333333h55--000000000--3333333-55555--|
  . .

Because Im nothing...

|------------------------------------|
|------------------------------------|
|------------------------------------|
|------------------------------------|
|---------------0-0-----5-5-----3-3--|
|-0-0--5-5--3-3-----0-0-----5-5------|
  . .       . .     . .     . .

Ending

|-----------------------------------------|
|-----------------------------------------|
|-----------------------------------------|
|----------------2-2-------7-7-------5-5--|
|-0-0--5-5--3-3--0-0--0-0--5-5--5-5--3-3--|
|-0-0--5-5--3-3-------0-0-------5-5-------|
  . .       . .       . .       . .

|---------------------------------------|
|---------------------------------------|
|---------------------------------------|
|----------------2-2-------7-7---5-5~~--|
|-0-0--5-5--3-3--0-0--0-0--5-5---5-5~~--|
|-0-0--5-5--3-3-------0-0--------5-5~~--|
  . .       . .       . .  

Done!! Hope you have fun. This song is pretty easy so you can learn playing it in less than 10 minutes.
If I made some mistakes send corrections to:mrbraz@web.de
Please rate!

Lyrics:
Every morning I wake up 
And I'm laying next to you. 
I wanna thank God and the Devil, for sending you.
Cause your my Girl my Wife my Sis Mother of my son. 
(Good and evil Ying and Yang everything combined in one)
Your my favorite color 
And the air that I breath all day. 
Your like a drug 
When I feel fucked up 
You come to save my day. 
One in a million 
like a pearl so hard to find. 
I'm so happy I met you 
and so thankful that your mine. 

What we've got is so special (special). 
A million people could search their whole life long 
No words can express the way that I feel 
that's why I wrote you this song 

Because I'm nothing, if you're not by my side! 
You give me love when I don't deserve it 
Cause you know that's when I need it the most 
Because I'm nothing, if you're not by my side!
Baby girl, I love you more then I ever thought I could 
And it's alright! 

Since I've known you 
My world is perfect. 
What have I done to deserve you?!
You're like a goddess in my eyes 
You make me cry when I want you 
And smile when I cant.
If I've got nothing to say 
I know you'll understand.
Baby I would kill for you 
Would give up everything I've got. 
Just to stay with you for a life time 
Believe it or not. 
I love everything you do 
And would do anything for you 
And I know you feel the same way too 

Because I'm nothing, if you're not by my side! 
You give me love when I don't deserve it 
Cause you know that's when I need it the most 
Because I'm nothing, if you're not by my side! 
Baby girl, I love you more then I ever thought I could 
And it's alright 

Yo,your spirit is beautiful 
There is nothing in this world I wouldn't buy for you. 
When I'm separated from my baby girl 
It makes me wanna crash the world.
You wanna know why? 

Because I'm nothing, if you're not by my side !
You give me love when I don't deserve it 
Cause you know that's when I need it the most 
Because I'm nothing, if you're not by my side!
Baby girl, I love you more then I ever thought I could 
And it's alright!

Because I'm nothing, if you're not by my side!
Baby girl, I love you more then I ever thought I could 
And it's alright!


Legend:

//:slide
..:palm muting
h :hammer on
p :pull off
(.):quiet notes

Related for Pearls Beauty tab