Song name
# A B C D E F G H I J K L M N O P Q R S T U V W X Y Z

4men - Hello tab

Artist: 4MEN
Song: Hello!
Tuning: Standard (Capo 1)

Transcribed this by simply watching another person's cover of the song and figuring out 
the forms, these are his chords. Hope it sounds okay!

   또, 사랑이 오네요, 이번이 
정말 마지막이야 you're my love yeah...
   또, 이별을 알았죠, 이번엔 
정말 내 사람이야 you're my lover...
e----------------------------------------------------------------|
b----------4--4---------2--8--8---------4--4---------------------|
g--------3----3-------1----8--8-------4----4---1--1--1-----------|
d------4------4-----2------8--8-----4------4---2--2--2-----------|  x2
a----2--------2---1--------6-------------------2-----------------|
e---------------------------------4--------4---------2-----------|


  So stop, 느낌이 왔죠, Shut up oh ohh...
  It's alright, it's alright...
e-------------------4---2-------------|
b----4-----4--------5---2-------------|
g----3-----4--------4---3-------------|
d----4-----4--------6---4-------------|
a----2-----x--------4---4-------------|
e----------4------------2-------------|


  내 사람입니다, 
내사람입니다, 보여주고 싶은 you're beautiful girl oh...
  내 여자입니다, 
언제까지나, you're my love, you're mu love...
  내 사랑 그대여...
e--------------------------------------|
b----4-----2---8-----4-----------------|
g----3-----1---8-----4---1--1----------|
d----4-----4---8-----4---2--2----------|  x3
a----2-----2---6---------2-------------|
e--------------------4------2----------|


  내 사랑 그대여... (upstrum the last chord)
e----2------2----------|
b----2------4----------|
g----3------3----------|
d----2------4----------|
a----4------2----------|
e----2------2----------|

Enjoy! :]
Tap to rate this tab
# A B C D E F G H I J K L M N O P Q R S T U V W X Y Z