Song name
# A B C D E F G H I J K L M N O P Q R S T U V W X Y Z

4no1 - Walk Away tab

Band: For No One (4no1) (4no1 from Uruguay)
Album: Falling Down
Song: Walk Away
Tabbed by: Dani Vegara
Email: lecheconcarne@hotmail.com

It's not 100% correct but's a basic idea of the song

Intro Guitar 1:
e|----------------------------------------------------|
B|----------------------------------------------------|
G|---9-----6------------------------------------------|   x 2
D|---9-----6-----7-----9------------------------------|
A|---7-----4-----7-----9------------------------------|
E|---0-----------5-----7------------------------------|

Intro Guitar 2:
     E     C#    A              B
e|----------------------------------------------------|
B|---7-9---7-9---10-9--7--5-----4--5--7---------------|
G|----------------------------------------------------|   x 2
D|---4-6---4-6---7--6--4--2-----1--2--4---------------|
A|----------------------------------------------------|
E|----------------------------------------------------|

Pre-verse Guitar 1:
e|-------------------  -------------|
B|-------------------  -------------|
G|---6---------------x3-------------|   Repeat Pre-verse
D|---6----6-6---7-7--  -9-9--999----|
A|---4----6-6---7-7--  -9-9--999----|
E|--------4-4---5-5--  -7-7--777----|


Pre-verse Guitar 2:
e|-------------------  --------------------|
B|-------------------  --------------------|
G|---6---------------x3------88-13-13-13---|   Repeat Pre-verse
D|---6----6-6---7-7--  -9-9----------------| (2nd time like Guitar 1)
A|---4----6-6---7-7--  -9-9--66-11-11-11---|
E|--------4-4---5-5--  -7-7----------------|

Verse Guitar 1:
e|-------------------------|
B|-------------------------|
G|---9-----6---------------|   x 2
D|---9-----6-----7-----9---|
A|---7-----4-----7-----9---|
E|---0-----------5-----7---|

Guitar 2:
e|--------------------------------|
B|--------------------------------|
G|---9-----6-----------8-9-11-11--|   x 2 (2nd time like Guitar 1)
D|---9-----6-----7----------------|
A|---7-----4-----7-----6-7-9--9---|
E|---0-----------5----------------|

Other (Both):
e|-------------------------------------------------|
B|-------------------------------------------------|
G|--6-----9--------------------------------------9-|
D|--6-----9-----7-----11--9-----7-----7-----9----9-| (Fast palm-mute here)
A|--4-----7-----7-----11--9-----7-----7-----9----7-|
E|--------------5-----9---7-----5-----5-----7------|

Verse 2 Both:
(Same as verse 1 but palm-muting (Guitar 2 plays higher notes)

Then repeat Verse 1 with Intro's notes for guitar 2

Other (Both):
e|-------------------------------------------------|
B|-------------------------------------------------|
G|--6-----9--------------------------------------9-|
D|--6-----9-----7-----11--9-----7-----7-----9----9-| (Fast palm-mute here)
A|--4-----7-----7-----11--9-----7-----7-----9----7-|
E|--------------5-----9---7-----5-----5-----7------|

Pre-verse Both
e|-------------------  -------------|
B|-------------------  -------------|
G|---6---------------x3-------------|   Repeat Pre-verse
D|---6----6-6---7-7--  -9-9--999----|
A|---4----6-6---7-7--  -9-9--999----|
E|--------4-4---5-5--  -7-7--777----|

Then (Both):
Pre-verse Guitar 1:
e|------------------------------------------------|
B|------------------------------------------------|
G|-------------9--------pickslide-----------------|
D|---7----9----9----9-------------6---6---7---9---|
A|---7----9----7----9-------------6---6---7---9---|
E|---5----7---------7-------------4---4---5---7---|
     ************
  (* means palm-mute)

Repeat Intro until the end, Guitar 2 octaves change

End on E

Official For No One website: www.4no1music.com
Tap to rate this tab
 
# A B C D E F G H I J K L M N O P Q R S T U V W X Y Z