Song name
# A B C D E F G H I J K L M N O P Q R S T U V W X Y Z

4tune - Miss You chords

Highlighted       Show chord diagrams
-------------------------------------------------------------------------------
                               MISS YOU - 4tune
-------------------------------------------------------------------------------
First Submitted: December 13th 2010

Tabbed by: Wayne S
Tuning: Standard EADGBE

Capo: 0

Chords:

D: x00232 or 557775
A: 002220 or 577655
Bm: 224432 or 799777
G: 320033 or 355433


Pretty simple song to play. The intro can be played as a backing track during the verses,
and for the pre-chorus, you could pick the given chords in a very similar way.

For the pre-chorus, I like to play it using bar chords (Bm: 799777, A: 577655, G: 355433)
since you'd basically be sliding up the fretboard in a very similar shape. Easy to switch
with the bar chords.


[Intro]:

  D           A           Bm           G  

e|2-----0--------------------------------------------------------------------|
B|----3-------2-----0-----3--------------------------------------------------|
G|--2-------------2-----------4-4---2--4-----2s4-----------------------------|
D|0-------------2-----------4--------------5---------------------------------|
A|------------0-----------2-----0--------5-----------------------------------|
E|-------------------------------------3-------------------------------------|

[Verse 1]:

D
  Miss you
A                 Bm
  When I close my eyes,
                    G
That's when you're near...
D
  I kiss you,
A                     Bm
  But I know that I'm dreamin'
           G
Girl, it's unfair

[Pre-Chorus]:

      Bm             A           G
And I can't help but cry every night,
         Bm            A         G	
When I'm weak & you're not by my sides


[Chorus]:

D                   A               Bm
  Girl I just wanna hold you, in my arms
                  G              D
Think of you each day now we're apart
                       A                 Bm
And I just want things back the way they were
       G                (D)
Find a way back to your heart


[Verse 2]:

D
  Without you,
A                  Bm
  I don't feel the same
                G
Since you went away...
D
  I need you
A                     Bm (abrupt stop)
  And I just want you back,
          G
Here with me


[Repeat Pre-Chorus]

[Repeat Chorus] x2


I miss you... 
Tap to rate this tab
 
# A B C D E F G H I J K L M N O P Q R S T U V W X Y Z