Song name
# A B C D E F G H I J K L M N O P Q R S T U V W X Y Z

5 Cent Deposit - On My Own tab

			     5 Cent Deposit - On My Own
                            http://www.5centdeposit.com
----------------------------------------------------------------------------Tabbed by:romeoiswhorish


Tuning: standard

intro 4x
(2x normal, 2x with vocals)
e|--------------------------------------------------------------------------|
B|--------------------------------------------------------------------------|
G|--6-----------------------------------------------------------------------|
D|--4--x8---6------4--------------------------------------------------------|
A|--4-------6--x8--4-x16----------------------------------------------------|
E|----------4------2--------------------------------------------------------|

part 2... 1x
e|--------------------------------------------------------------------------|
B|--------------------------------------------------------------------------|
G|--6--------------------8--------------------------------------------------|
D|--6--x8--6------4------8--x8----------------------------------------------|
A|--4------6--x8--4--x8--6--------------------------------------------------|
E|---------4------2---------------------------------------------------------|

part 3...2x
e|--------------------------------------------------------------------------|
B|--------------------------------------------------------------------------|
G|-6------------------------------------------------------------------------|
D|-6--x8-6----4-------------------------------------------------------------|
A|-4-----6-x8-4--x8---------------------------------------------------------|
E|-------4----2-------------------------------------------------------------|

part 4...(guitar 2 plays some octave thing in the background as lead)

e|--------------------------------------------------------------------------|
B|--------------------------------------------------------------------------|
G|-6------------------------------------------------------------------------|
D|-6-x16-6------8-----4-----------------------------------------------------|
A|-4-----6--x16-8-x16-4--x16------------------------------------------------|
E|-------4------6-----2-----------------------------------------------------|

-verse 2x (intro riff with lyrics.)
-part 2
-part 3

part 5...x2
"ain't nothing playing on the radio..."

e|--------------------------------------------------------------------------|
B|--------------------------------------------------------------------------|
G|-8------------------------------------------------------------------------|
D|-8--x16-4-----------------------------------------------------------------|
A|-6------4---x16-----------------------------------------------------------|
E|--------2-----------------------------------------------------------------|

part 4 2x (this time with vocals)
then part 4 2x again with lead in background
verse 2x
part 2 x1
part 3 x2
part 5 x2
part 4 2x with vocals

part 6 "woah oh oh, woah oh oh..."
e|--------------------------------------------------------------------------|
B|--------------------------------------------------------------------------|
G|-6---------6--------------------------------------------------------------|
D|-6-----4---6---444444444444444--------------------------------------------|
A|-4-----4---4---444444444444444--------------------------------------------|
E|-------2-------222222222222222--------------------------------------------|
play that 1x like that, then play it again on 2nd time through this time with no ring 
all play outs 2 more times

part 4 out until the end


-ok this is my first complete tab so it may look confusing, but listen to the song and 
parts are divided into the way the song is plays, im pretty sure it's 98% correct. thanks!
Tap to rate this tab
 
# A B C D E F G H I J K L M N O P Q R S T U V W X Y Z