Song name
# A B C D E F G H I J K L M N O P Q R S T U V W X Y Z

5 Cent Deposit - Things Aint Fine tab

5 Cent Deposit - Things Ain't Fine

Tabbed by: romeoiswhorish

Tuning:standard

rhtym guitar parts

-lead plays a little fill over the rhytm guitar for intro

-intro/verses are just this riff played over & over until chorus thing
e|--------------------------------------------------------------------------|
B|--------------------------------------------------------------------------|
G|---------6----------------------------------------------------------------|
D|-6-------6--x16-----------------------------------------------------------|
A|-6--x16--4----------------------------------------------------------------|
E|-4------------------------------------------------------------------------|

chorus x4 figure out the strumming, it's easy
e|--------------------------------------------------------------------------|
B|--------------------------------------------------------------------------|
G|---6-----8-----------------6------8---------------------------------------|
D|6--6-x8  8--x8-----6------ 6--x8-- 8--x8----------------------------------|
A|6--4---- 6---------6--x8---4------6---------------------------------------|
E|4------------------4------------------------------------------------------|

then intro with gtr 2 lead
then the verse again
then the chorus again

little fill thing
e|--------------------------------------------------------------------------|
B|--------------------------------------------------------------------------|
G|----6-----6---------------------------------------------------------------|
D|-6--6--6--6---------------------------------------------------------------|
A|-6--4--6--4---------------------------------------------------------------|
E|-4-----4------------------------------------------------------------------|

then the first plays, only this time FASTER
then the chorus again, this time play it out till the end
gtr 2 plays the intro lead over the last couple times of chorus

simple as pie!

| /  slide up
| \  slide down
| h  hammer-on
| p  pull-off
| ~  vibrato
| +  harmonic
| x  Mute note
=========================================================================
Tap to rate this tab
 
# A B C D E F G H I J K L M N O P Q R S T U V W X Y Z