Song name
# A B C D E F G H I J K L M N O P Q R S T U V W X Y Z

5 Cent Deposit - In Crowd tab

			     5 Cent Deposit - The In Crowd
----------------------------------------------------------------------------Tabbed by: romeoiswhorish

Tuning: Standard

gtr I intro xALOT
e|---------------------------------------------------------------------------|
B|---------------------------------------------------------------------------|
G|9--------------------------------------------------------------------------|
D|9--xALOT-------------------------------------------------------------------|
A|7--------------------------------------------------------------------------|
E|---------------------------------------------------------------------------|

gtr 2 intro (ring out's x2 then played out, listen to song for #'s, it's easy)
e|--------------------------------------------------------------------------|
B|--------------------------------------------------------------------------|
G|--------------------------------------------------------------------------|
D|6-7--2-9------------------------------------------------------------------|
A|6-7--2-9-------every other time play this, then end on e minor instead----|
E|4-5--0-7------------------------------------------------------------------|

verse x4 - SAME riff as above (intro played out)

part after verse x 2
e|---------------------------------------------------------------------------|
B|---------------------------------------------------------------------------|
G|-----999999999999----------------------------------------------------------|
D|6-7--999999999999---777777777777-------------------------------------------|
A|6-7--777777777777---777777777777-------------------------------------------|
E|4-5-----------------555555555555-------------------------------------------|

then just play a little chord on Eminor for a sec like this. half palm muted after the above part.
e|--------------------------------------------------------------------------|
B|--------------------------------------------------------------------------|
G|--------------------------------------------------------------------------|
D|2222222-------------------------------------------------------------------|
A|2222222-------------------------------------------------------------------|
E|0000000-------------------------------------------------------------------|

verse x4

part after verse again x2

intro ring outs with guitar 2 again x4

verse x4

part after verse again x2
and end on Em

easy as usual. some of the numbers of times played may be wrong, but the correct chords 
all there, so it should be good, just listen to the song, and it helps. thanks!
Tap to rate this tab
# A B C D E F G H I J K L M N O P Q R S T U V W X Y Z