Song name
# A B C D E F G H I J K L M N O P Q R S T U V W X Y Z

5 Seconds Of Summer - Unpredictable tab

So here's the solo!

Check out the chords to "Lost In Love" and "Elevate" by Big Time Rush and "Here
Comes Forever" Tab by R5!!!! :-)

Capo 4

~=slide
*=let it ring

e----------------------------------------------------------------------------|
B-3-3-3-1-1-1-0-0-0--------------------------3----3----3----3----3-----------|
G------------------2-2-2-4-2-0-----------------------------------------------|
D-----------------------------4-2-4-5~------4-4--4-4--4-4--4-4--4------------|
A----------------------------------------------------------------------------|
E----------------------------------------------------------------------------|

e-0-0-0-0-2-2-2-2-3-3-3-3-8-8-7-8-7*-----------------------------------------|
B----------------------------------------------------------------------------|
G----------------------------------------------------------------------------|
D----------------------------------------------------------------------------|
A----------------------------------------------------------------------------|
E----------------------------------------------------------------------------|
Tap to rate this tab
 
# A B C D E F G H I J K L M N O P Q R S T U V W X Y Z