Song name
# A B C D E F G H I J K L M N O P Q R S T U V W X Y Z

5 Seconds Of Summer - Heartbreak Girl tab

INTRO

e|-----------------|
B|-----------------|
G|-----------------|
D|-----------------|
A|-5-5-5---6-6-6-5-|
E|-------6---------|

VERSE

e|---------------------------------------------------|
B|---------------------------------------------------|
G|---------------------------------------------------|
D|-8-x-x-8-x-8-x-8--8-8-x-x-7-x-x-7-x-7-x-7-x-7--7-7-|
A|-8-x-x-8-x-8-x-8--8-8-x-x-7-x-x-7-x-7-x-7-x-7--7-7-|
E|-6-x-x-6-x-6-x-6--6-6-x-x-5-x-x-5-x-5-x-5-x-5--5-5-|

you call me up.....

e|---------------------------------------------------|
B|---------------------------------------------------|
G|--------------------------8-x-x-8-x-8-x-8--8-8-----|
D|-5-x-x-5-x-3-x-3-3-x-x----8-x-x-8-x-8-x-8--8-8-----|
A|-5-x-x-5-x-3-x-3-3-x-x----6-x-x-6-x-6-x-6--6-6-----|
E|-3-x-x-3-x-1-x-1-1-x-x------x-x---x---x------------|

PRE CHORUS

e|----------------------------------|
B|----------------------------------|
G|----------------------------------|
D|-55555555333333331111111111111111-|
A|-55555555333333331111111111111111-|
E|----------------------------------|

when the phone.....

CHORUS

e|-----------------------------------------------------------------|
B|-----------------------------------------------------------------|
G|-----------------7777777777777777----------------8888888888888888|
D|-8888888888888888777777777777777755555555555555558888888888888888|
A|-8888888888888888555555555555555555555555555555556666666666666666|
E|-6666666666666666----------------3333333333333333----------------|

i dedicate this..............

BRIDGE

e|-------------------------------------------|
B|-------------------------------------------|
G|----------------------8-x-x-8-x-8-x-8--8-8-|
D|-5-x-x-5-x-5-x-5--5-5-8-x-x-8-x-8-x-8--8-8-|
A|-5-x-x-5-x-5-x-5--5-5-6-x-x-6-x-6-x-6--6-6-|
E|-3-x-x-3-x-3-x-3--3-3---x-x---x---x--------|

i know some day........

e|---------------------------------------------------|
B|---------------------------------------------------|
G|---------------------------------------------------|
D|-8-x-x-8-x-8-x-8--8-8-x-x-8-x-x-8-x-8-x-8--8-8-x-x-|
A|-8-x-x-8-x-8-x-8--8-8-x-x-8-x-x-8-x-8-x-8--8-8-x-x-|
E|-6-x-x-6-x-6-x-6--6-8-x-x-6-x-x-6-x-6-x-6--6-6-x-x-|
Tap to rate this tab
# A B C D E F G H I J K L M N O P Q R S T U V W X Y Z