Song name
# A B C D E F G H I J K L M N O P Q R S T U V W X Y Z

5 Seconds Of Summer - She Looks So Perfect chords

Highlighted       Show chord diagrams
tuning standard

capo 2 or 4 ft.

choards C Am Em (F)


SHE LOOKS SO PERFECT

INTRO

 C
-----------------------|--------------------------|
-3--3-----3--3---------|-3--3--------3--3-----3---|
-------2--------2--2---|---------2---------2------|
-----------------------|--------------------------|
-----------------------|--------------------------|
-----------------------|--------------------------|


1^

   C                   
I tried all night I tried calling you up 
            Am
But it just rings rings rings and you never pick up 
              Em
So what's up? what's up? what's up? 
                              
I thought that we were OK 

C
-3--3-----3--3----3----|
-------2--------2------|
-----------------------|
-----------------------|
-----------------------|
-----------------------| x2


2^

    C             
I left a message but I missed it right up 
        Am
I tried to do it again but it just ain't long enough 
          Em                 
So pick up, pick up, pick up 
                        
And hear what I gotta say 

C
-3--3-----3--3----3----|
-------2--------2------|
-----------------------|
-----------------------|
-----------------------|
-----------------------|x2

 p.chorus    

     Am
After the beep beep beep 
                                            
 chorus

       C
My heart beats harder when you come in close 
       Am                                       
And you got this power that won't let me go 
            Em
It's amazing, now you use the best thing 
                         C or F
Say you feel the same thing 


        C
And I count each hour until we're alone 
          Am
And i keep on checking, keep checking my phone 
              Em
I'll be waiting, waiting for your call 
                     C or F
You're just so amazing 

C
-3--3-----3--3----3----|
-------2--------2------|
-----------------------|
-----------------------|
-----------------------|
-----------------------| x2 

  3^
 
 C
I keep on trying but I am more out of luck 
           Am
But I still ring ring ring, 'cause I'm not giving up 
           Em
I'l wait up, wait up, I'll wait up 
                      
Cause it's all I can do
 
C
-3--3-----3--3----3----|
-------2--------2------|
-----------------------|
-----------------------|
-----------------------|
-----------------------|  

   CHORUS

    C 
My heart beats harder when you come in close 
       Am
And you got this power that won't let me go 
          Em
It's amazing, now you use the best thing 
                          C or F
Say you feel the same thing 
     
          C
And I count each hour until we're alone 
      Am
And I keep on checking, keep checking my phone 
             Em
I'll be waiting, waiting for your call 
                      C or F
You're just so amazing 

  BRIDGE

C
I never thought 

I never though you'd check my phone 
 Am
I never thought 

I never thought you'd try and see 
 Em 
The way I was trying to call you 
C or F
You are trying to call me  

      
   CHORUS
  
        C
She said her heart beats louder when I come in close 
      Am
And I've got this power that won't let her go 
            Em
It's amazing, now you use the best thing 
                           C or F
Do you feel the same thing? 

   last chorus

    C
And she counts each hour until we're alone 
       Am
And she keeps on checking, keep checking my phone 
                 Em
She'll be waiting, waiting for your call 
                     C or F
Cause she's so amazing

END

C
-3--3-----3--3----3----|
-------2--------2----2-|
-----------------------|
-----------------------|
-----------------------|
-----------------------| 

C

Tap to rate this tab
 
# A B C D E F G H I J K L M N O P Q R S T U V W X Y Z