Song name
# A B C D E F G H I J K L M N O P Q R S T U V W X Y Z

5 Seconds Of Summer - What I Like About You tab

-------------------------------------------------------------------------------
                             What I Like About You - 5 Seconds of Summer
-------------------------------------------------------------------------------
E-mail: angeloevg85@gmail.com

Tuning:Standard

    F     A#    D#    C
e|--x--|--x--|--x--|--x--|
B|--x--|--x--|--x--|--x--|
G|--x--|--x--|--8--|--x--|
D|--3--|--8--|--8--|--10-|
A|--3--|--8--|--6--|--10-|
E|--1--|--6--|--x--|--8--|

Intro: 

e|-----------------------------------------------------------------------------------------|
B|-----------------------------------------------------------------------------------------|
G|-15-14-15-15-888-10-10-10---15-15-14-14-15-15-888-10-10-10---15-14-15-15-888-10-10-10----|
D|-----------------------------------------------------------------------------------------|
A|-13-12-13-13-666-8--8--8----13-13-12-12-13-13-666-8--8--8----13-12-13-13-666-8--8--8-----|
E|-----------------------------------------------------------------------------------------|

e|----------------------------------------|
B|----------------------------------------|
G|-15-15-15-14-14-14-15-15-15-14-14-14-15-|
D|----------------------------------------|
A|-13-13-13-12-12-12-13-13-13-12-12-12-13-|
E|----------------------------------------|

    A#-D#-A# A#-D#-A#    A#-D#-A# F-A#-D#-A#
Hey!                 Hey!

Verse and Chorus: F-A#-D#-A#

That's what I like about you
You hold me tight
Tell me I'm the only one
Wanna come over tonight?
Yeah

Keep on whispering in my ear
Tell me all the things that I wanna hear
'Cause it's true, that's what I like about you

What I like about you
You really know how to dance
When you go up, down, jump around
Think about true romance, yeah

Keep on whispering in my ear
Tell me all the things that I wanna hear
'Cause it's true, that's what I like about you

That's what I like about you

(What I like about you)

That's what I like about you

(What I like about you)

That's what I like about you

(What I like about you)
                                C (Last chord to be played before the solo)
That's what I like about you    



Solo: 

e|------------------------------------------------------------------------------------|
B|-11-11-10-10-8-8-10-11-11-10-10-8-8-10---11-11-10-10-8-8-10-11-11-10-10-8-8-10------|
G|------------------------------------------------------------------------------------|
D|------------------------------------------------------------------------------------|
A|------------------------------------------------------------------------------------|
E|------------------------------------------------------------------------------------|

e|--------------------------------------|
B|--------------------------------------|
G|-10-10-/12-/14-/15--\10-/15-\14-\12---|
D|--------------------------------------|
A|-8--8--/10-/12-/13--\8--/13-\12-\10---|
E|--------------------------------------|

(Tremolo picking)

e|------------------------------------------------------|
B|-----11----13----11----10----11----10----8------------|
G|--10----10----10----10----10----10----10---10---------|
D|------------------------------------------------------|
A|------------------------------------------------------|
E|------------------------------------------------------|



F-A#-D#-A#

What I like about you
You keep me warm at night
Never wanna let you go
Know you make me feel alright

Keep on whispering in my ear
Tell me all the things that I wanna hear
'Cause it's true, that's what I like about you

That's what I like about you

(What I like about you)

That's what I like about you

(What I like about you)

That's what I like about you

(What I like about you)
                          F    F
That's what I like about you, you
                            F
That's what I like about you


************************************

| /   slide up
| \   slide down
| x   Mute note

************************************
Tap to rate this tab
 
# A B C D E F G H I J K L M N O P Q R S T U V W X Y Z