Song name
# A B C D E F G H I J K L M N O P Q R S T U V W X Y Z

5 Star Grave - Lemmings tab

Hey guys, I tried playing along with this underrated song and managed to figure out most 
sections of the rhythm guitar and the lead section of the verses.

I don't know the rhythm section for the bridge (The part where it's just "LEMMINGS" 
followed by a scream x2) but everything else seems to sound decent enough.

This tab will be very basic with little accuracy on how often a power chord is used, 
you'll probably have to listen to it to get it right.

Feel free to let me know if you find a better way or whatever cause I'd love to be able 
to play this right :)

5 Star Grave's official website can be found at http://www.5stargrave.com/
5 Star Grave are currently (20th November 2013) signed with Massacre Records


E standard tuning.




After the classical intro, when the guitar comes in:

e|--------------------|
B|--------------------|
G|--------------------|
D|-2-2--2-2--2-2--2-2-|
A|-2-2--2-2--2-2--2-2-|
E|-0-0--0-0--0-0--0-0-|

Intro/Chorus

e|-----------------------------------------|
B|-----------------------------------------|
G|---------------5-5-5---------------7-7-7-|
D|-----2-2-2-5-5-5-5-5-----5-5-5-7-7-7-7-7-|   x 4
A|-2-2-2-2-2-3-3-3-3-3-5-5-5-5-5-5-5-5-5-5-|
E|-0-0-0-0-0-----------3-3-3-3-3-----------|

Pre-verse (Let ring, you'll hear when to do it the second time)

e|----------|
B|----------|
G|----------|
D|-2--------|        x 2
A|-2--------|
E|-0--------|

Verse I (Three separate sections, Verse I features the quiet growled vocals)


      ^(let ring)
e|--------0-----------------|
B|------0-------------------|
G|----0-----------4-5-------|
D|--------------5-------4-5-|     x 2
A|--------------------5-----|
E|-0------------------------|

(note, could cut off the end of the second time with a pick slide)


Verse II (Louder screamed vocals, immediately after Verse I.  Let notes ring till next chord)

e|-----------------|
B|-----------------|
G|-----5-------7---|
D|-2---5---5---7---|       x 2
A|-2---3---5---5---|
E|-0-------3-------|

Verse III (No rhythm here, just this fill solo, very simple to do)

e|-7-0-0-3-0-0-5-0-7-0-8-0-10-0-8-0-7-0-0-3-0-0-5-0-7-0-5-0-3-0-5------|
B|---------------------------------------------------------------------|
G|---------------------------------------------------------------------|
D|---------------------------------------------------------------  x 2-|
A|---------------------------------------------------------------------|
E|---------------------------------------------------------------------|

Chorus (Same as intro, but I'll post here incase you're playing along trying to 
scroll quickly :) )

e|-----------------------------------------|
B|-----------------------------------------|
G|---------------5-5-5---------------7-7-7-|
D|-----2-2-2-5-5-5-5-5-----5-5-5-7-7-7-7-7-|   x 4
A|-2-2-2-2-2-3-3-3-3-3-5-5-5-5-5-5-5-5-5-5-|
E|-0-0-0-0-0-----------3-3-3-3-3-----------|





Song resets to Pre-verse and plays through to chorus, which again, I'll copypaste the whole thing.






Pre-verse (Let ring, you'll hear when to do it the second time)

e|----------|
B|----------|
G|----------|
D|-2--------|        x 2
A|-2--------|
E|-0--------|

Verse I (Three separate sections, Verse I features the quiet growled vocals)


      ^(let ring)
e|--------0-----------------|
B|------0-------------------|
G|----0-----------4-5-------|
D|--------------5-------4-5-|     x 2
A|--------------------5-----|
E|-0------------------------|

(note, could cut off the end of the second time with a pick slide)


Verse II (Louder screamed vocals, immediately after Verse I.  Let notes ring till next chord)

e|-----------------|
B|-----------------|
G|-----5-------7---|
D|-2---5---5---7---|       x 2
A|-2---3---5---5---|
E|-0-------3-------|

Verse III (No rhythm here, just this fill solo, very simple to do)

e|-7-0-0-3-0-0-5-0-7-0-8-0-10-0-8-0-7-0-0-3-0-0-5-0-7-0-5-0-3-0-5------|
B|---------------------------------------------------------------------|
G|---------------------------------------------------------------------|
D|---------------------------------------------------------------  x 2-|
A|---------------------------------------------------------------------|
E|---------------------------------------------------------------------|

Chorus (Same as intro, but I'll post here incase you're playing along trying to 
scroll quickly :) )

e|-----------------------------------------|
B|-----------------------------------------|
G|---------------5-5-5---------------7-7-7-|
D|-----2-2-2-5-5-5-5-5-----5-5-5-7-7-7-7-7-|   x 4
A|-2-2-2-2-2-3-3-3-3-3-5-5-5-5-5-5-5-5-5-5-|
E|-0-0-0-0-0-----------3-3-3-3-3-----------|


Bridge (LEEEEEMMIIIIIINGS!  Sadly, I don't have anything for this section.

The best I can get is it's based around C5 and plays around there, but I don't 
have anything for it :/)


After the bridge, the guitar basically goes from Verse II straight into Chorus.

So it goes :


e|-----------------|
B|-----------------|
G|-----5-------7---|
D|-2---5---5---7---|       x 4
A|-2---3---5---5---|
E|-0-------3-------|


e|-----------------------------------------|
B|-----------------------------------------|
G|---------------5-5-5---------------7-7-7-|
D|-----2-2-2-5-5-5-5-5-----5-5-5-7-7-7-7-7-|   x 4
A|-2-2-2-2-2-3-3-3-3-3-5-5-5-5-5-5-5-5-5-5-|
E|-0-0-0-0-0-----------3-3-3-3-3-----------|


Outro is the same as the intro, with the last chord missing.

e|------------------|
B|------------------|
G|------------------|
D|-2-2--2-2--2-2--2-|
A|-2-2--2-2--2-2--2-|
E|-0-0--0-0--0-0--0-|


So yeah, hope this helped you out, if you think you can tab out the bridge please let me 
know, or even if you think I'm wrong, feel free to let me know :)
Tap to rate this tab
# A B C D E F G H I J K L M N O P Q R S T U V W X Y Z