Song name
# A B C D E F G H I J K L M N O P Q R S T U V W X Y Z

50 Cent - In Da Club tab

The low Part


e|-------------------|
b|-------------------|
g|-------------------|
d|-------------------|
a|2-3-----0-2-----3-2|
d|2-3-----0-2-----3-2|


The high Part


e|---------------------|
b|---------------------|
g|---------------------|
d|---------------------|
a|9-10-----7-9-----10-9|
d|9-10-----7-9-----10-9|
Tap to rate this tab
 
# A B C D E F G H I J K L M N O P Q R S T U V W X Y Z