Song name
# A B C D E F G H I J K L M N O P Q R S T U V W X Y Z

50 Cent - Candy Shop tab

-----------------------------------------------------------------------------
			     CANDY SHOP - 50 CENT
-----------------------------------------------------------------------------

Tabbed by: Mosh-Manic
Email:

Tuning:Drop D

VIDEO: http://www.youtube.com/watch?v=Q3O7G1RC7-A

INTRO
e|--------------------------------------------------------------------------|
B|--------------------------------------------------------------------------|
G|--------------------------------------------------------------------------|
D|-4-----5-5---4----(x3)----4--2-4-5-7-4------------------------------------|
A|-4-----5-5---4------------4--2-4-5-7-4------------------------------------|
D|-4--xx-5-5-x-4------------4--2-4-5-7-4------------------------------------|

CHORUS 1 (Played Twice)
e|--------------------------------------------------------------------------|
B|--------------------------------------------------------------------------|
G|--------------------------------------------------------------------------|
D|-4-----5-5--4+----(x3)----4--2-4-5-7-4------------------------------------|
A|-4------------------------4-----------------------------------------------|
D|-4--xx--------------------4-----------------------------------------------|

VERSE 1
-Play the INTRO twice, followed by the CHORUS once, then play the INTRO again one time.

CHORUS 2 -(Played Three Times)

VERSE 2
-Same as VERSE 1.

CHORUS 3 -(Played Twice)

VERSE 3 - (Played Twice)
e|--------------------------------------------------------------------------|
B|--------------------------------------------------------------------------|
G|--------------------------------------------------------------------------|
D|-4-----5-5---------(x3)----4--2-4-5-7-4-----------------------------------|
A|-4-----5-5-----------------4--2-4-5-7-4-----------------------------------|
D|-4--xx-5-5-x-4b------------4--2-4-5-7-4-----------------------------------|

FINAL CHORUS - (Play Three Times)
-Slowly fades out.

************************************

| +   harmonic
| x   Mute note
| b   Bend

************************************

Thanks for reading.
Tap to rate this tab
 
# A B C D E F G H I J K L M N O P Q R S T U V W X Y Z