Song name
# A B C D E F G H I J K L M N O P Q R S T U V W X Y Z

50 Cent - Places To Go tab

-------------------------------------------------------------------------------
			     Places to Go - 50 Cent
-------------------------------------------------------------------------------
Tabbed by:Ace496970
Email:Ace496970@yahoo.com
Album: 8 Mile Soundtrack

Tuning:standard

Intro:

e|---------------------------------------------------------------------------|
B|---2--7--6-------------5-----------2--------1------------------------------|
G|3-------------3--3--3-----3--3--3-----3--3---------------------------------|
D|---------------------------------------------------------------------------|
A|---------------------------------------------------------------------------|
E|---------------------------------------------------------------------------|

Rest of Song:

e|---------------------------------------------------------------------------|
B|---------2----------4-----------6-----------7---------4--7--6--------------|
G|3--3--3----3--3--3-----3--3--3-----3--3--3----3--3--3----------------------|
D|---------------------------------------------------------------------------|
A|---------------------------------------------------------------------------|
E|---------------------------------------------------------------------------|

e|---------------------------------------------------------------------------|
B|---------4----------2---------1-----------------------------------------------|
G|3--3--3----3--3--3----3--3--3-------------------------------------------------------|
D|---------------------------------------------------------------------------|
A|---------------------------------------------------------------------------|
E|---------------------------------------------------------------------------|

This is a really simple song, and it sounds cool.
Tap to rate this tab
# A B C D E F G H I J K L M N O P Q R S T U V W X Y Z