Song name
# A B C D E F G H I J K L M N O P Q R S T U V W X Y Z

50 Cent - Get In My Car tab

just listen to the song to get the rythem

 E --------------5----7----5-------------|
 B ----------------------------8---6-----|
 G -----------------------------------7--|
 D --------------------------------------|
 A --------------------------------------|
 E --------------------------------------|

 e  ---------------5h7p5-------------------|
 b  ----------------------8---6------------|
 g  -----------------------------7---------|
 d  ---------------------------------------|
 a  ---------------------------------------|
 e  ---------------------------------------|
Tap to rate this tab
# A B C D E F G H I J K L M N O P Q R S T U V W X Y Z