Song name
# A B C D E F G H I J K L M N O P Q R S T U V W X Y Z

50 Cent - Candy Shop tab

This is a really easy one to play and work out, took me 5 mins... sounds best on bass with high treble.

NOTE: this timing is not correct but its too easy to work out...

                                  Cand Shop                  


Track 1
                                                                 
E||----------------------|-------|----------------------|-------|
B||----------------------|-------|----------------------|-------|
G||----------------------|-------|----------------------|-------|
D||----------------------|-------|----------------------|-------|
A||-------1----1----0----|--0----|-------1----1---------|--0----|
E||--0-------------------|-------|--0--------------3----|-------|


                                                               
----------------------|-------|----------------------|-------||
----------------------|-------|----------------------|-------||
----------------------|-------|----------------------|-------||
----------------------|-------|----------------------|-------||
-------1----1----0----|--0----|------------1----3----|--0----||
--0-------------------|-------|--0----3--------------|-------||

Repeat...
Tap to rate this tab
 
# A B C D E F G H I J K L M N O P Q R S T U V W X Y Z