Guitaretab - guitar tabs
Song name
# A B C D E F G H I J K L M N O P Q R S T U V W X Y Z

50 Lions - Instrumental tab

Band:  50 Lions
Song: Instrumental
Album: Where Life Expires

DROP D TUNING

e---------------------------------------------|
B---------------------------------------------|
G---------------------------------------------|
D--3-2--2--0-2--(2)--2-3-3-3-3-2-2-0---0-2-2--|
A--3-2--2--0-2--(2)--2-3-3-3-3-2-2-0---0-2-2--|
D--3-2--2--0-2--(2)--2-3-3-3-3-2-2-0---0-2-2--|


e---------------------------------------------|
B---------------------------------------------|
G---------------------------------------------|
D--3-2--2--0-2--(2)--2-3-3-3-3-2-2-0---0-2-2--|
A--3-2--2--0-2--(2)--2-3-3-3-3-2-2-0---0-2-2--|
D--3-2--2--0-2--(2)--2-3-3-3-3-2-2-0---0-2-2--|

[ Tab from: http://www.guitaretab.com/numeric/50-lions/219327.html ]
e---------------------------------------------|
B---------------------------------------------|
G---------------------------------------------|
D--3-2--2--0-2--(2)--2-3-3-3-3-2-2-0---0-2-2--|
A--3-2--2--0-2--(2)--2-3-3-3-3-2-2-0---0-2-2--|
D--3-2--2--0-2--(2)--2-3-3-3-3-2-2-0---0-2-2--|


e---------------------------------------------|
B---------------------------------------------|
G---------------------------------------------|
D--3-2--2--0-2--(2)--2-3-3-3-3-2-2-0---0-2-2--|
A--3-2--2--0-2--(2)--2-3-3-3-3-2-2-0---0-2-2--|
D--3-2--2--0-2--(2)--2-3-3-3-3-2-2-0---0-2-2--|


Guitar 2 comes in at 0.36

--------------------------------------|
----6-5------6-5------6-5------6---5--|
--5--------5--------5--------5--------|
---------------------------------5----|
--------------------------------------|
--------------------------------------|
Related for Instrumental tab
Instrumental chords by 50 Lions