Song name
# A B C D E F G H I J K L M N O P Q R S T U V W X Y Z

51 Koodia - Lasimaailma tab

 This is my first tab...

E -----------------------------------------------------------------------|
H ---------8-6-8----------10-8-10--11-10-11---------6-4-6----------------|
G --7-5-7---------7-5-7----------------------7-5-7----------5-3-5--5-3-5-|
D -----------------------------------------------------------------------|
A -----------------------------------------------------------------------|
E -----------------------------------------------------------------------|


E -----------------------------------------------------------------------|
H --6-4-6---------10-8-10------------------------------------------------|
G ---------5-3-5---------------------------------------------------------|
D -----------------------------------------------------------------------|
A -----------------------------------------------------------------------|
E -----------------------------------------------------------------------|

Notice! I couldnīt find out what were last sounds... (and sorry my bad english :) )


This was it! Enjoy! Itīs pretty easy song
Tap to rate this tab
# A B C D E F G H I J K L M N O P Q R S T U V W X Y Z