Song name
# A B C D E F G H I J K L M N O P Q R S T U V W X Y Z

51 Koodia - Aavelaulajatar tab

51 koodia - aavelaulajatar
by AdVisory


Viritys: DGCFAd, eli kokonainen svelaskel alaspin

Introriffi, joka soi mys aina silloin tllin skeistjen vliss


D|---------3-------------3-------------3-----------------0h3-----------------|
A|--5--3h5---3h5--5--3h5---3h5--5--3h5---3h5--1--3s5---3---------------------|
F|---------------------------------------------------------------------------|
C|---------------------------------------------------------------------------|
G|---------------------------------------------------------------------------|
D|---------------------------------------------------------------------------|

taustalla sointukierto:  Am, F, G, F G useamman kerran 
kunnes vaihtuu powersointuihin eli A5, F5, G5, F5 G5


riffi 2:

D|------8-------7-----|
A|--------------------|
F|---/9---9--/7---7---|
C|--------------------|
G|--------------------|
D|--------------------|



Salainen ikkuna taas avautuu


Kuulen nen laulavan "luokseni tuu"

Am                    F
    Otan pydlt mun kirjani, 
   
      G                    F    G            
johon joskus unet muistiin kirjoitan

    Am                       F
Oon elnyt tn hetken kerran aiemmin,
 
         G                      F5  G5   
mut vain unessa en todellisuudessa


A5          F5  G5                     F5         G5
Aavelaulajatar, kutsuu mua laulullaan, pyyt mua seuraamaan

A5      F5 G5                      F5     G5
Laulajatar, viettelee mut uudestaan, iseen, usvaiseen puutarhaan



Niin sininen hetki on, paljain jaloin nousen kiviportaita


Sumun lpi katsoo joku eloton,

                   *riffi2
Se on enkeli tehty marmorista


oot taas kauempana kuin m luulinkaan


Silti sun nes pimeyteen mua johdattaa


M tiedn, tm polku vie mua kuolemaan ja kuitenkin mun tytyy sit seurata



A5          F5  G5                     F5         G5
Aavelaulajatar, kutsuu mua laulullaan, pyyt mua seuraamaan

A5      F5 G5                      F5     G5
Laulajatar, viettelee mut uudestaan, iseen, usvaiseen puutarhaan


solo:  A5, F5, D5, G5
       A5, F5, D5, G5
       F5, G5, A5
       F5, G5, A5	


A5          F5  G5                     F5         G5
Aavelaulajatar, kutsuu mua laulullaan, pyyt mua seuraamaan

A5      F5 G5                      F5     G5
Laulajatar, viettelee mut uudestaan, iseen, usvaiseen puutarhaan


Outro: A5, F5, D5, G5
       A5, F5, D5, G5
       F5, G5, A5


Tap to rate this tab
# A B C D E F G H I J K L M N O P Q R S T U V W X Y Z