Song name
# A B C D E F G H I J K L M N O P Q R S T U V W X Y Z

54-40 - One Day In Your Life tab

Help us improve GuitareTab! Take a short survey!
This is a great song!

Intro (0:00-0:06) Repeat Four Times.

e|---------------|
b|---------------|
g|--------------.|
d|----------0-0-.|
a|-2-2-2-2-2-2---|
E|---------------|

Riff 1 (0:07-1:31)
  B5        D5                 D5 (Ending #1)        
|----------------------------|---------------------------------------|
|----------------------------|------3---3-3-3-3-3-3-3-3-3-3-3-3-3-3--|
|----------------------------|.---2---2-2-2-2-2-2-2-2-2-2-2-2-2-2-2-.|
|-----------0-2-2-2-2-4-2-0-2|.-0-------0-0-0-0-0-0-0-0-0-0-0-0-0-0-.|
|-2-2-2-2-2------------------|---------------------------------------|
|----------------------------|---------------------------------------|

Ending #2
  D5
|---------------------------|
|--3-3-3-3-3-3-3-3-3-3-3-3--|
|.-2-2-2-2-2-2-2-2-2-2-2-2-.|
|.-0-0-0-0-0-0-0-0-0-0-0-0-.|
|---------------------------|
|---------------------------|


I'll be back with the chorus soon.

                                      Eric W.
Related for One Day In Your Life tab