Song name
# A B C D E F G H I J K L M N O P Q R S T U V W X Y Z

54-40 - Since When tab

54-40, since when.
Tabbed by nick_difelice@hotmail.com.
  
Intro:
E--------------------------------------------------|
B--------------------------------------------------|
G--------------------------------------------------|
D--------------------------------------------------|
A-----------7----5--------5-----5---7--------------|
E--0--0--------------7--------7--------------------|
   x2


E--------------------------------------------------|
B--------------------------------------------------|
G--------------------------------------------------|
D-----------7----5--------5-----5---7--------------|
A--0--0--------------7--------7--------------------|
E--------------------------------------------------|

 x2
 
:: Ultimate Guitar Archive :: 
http://www.ultimate-guitar.com 

Tap to rate this tab
 
# A B C D E F G H I J K L M N O P Q R S T U V W X Y Z