Song name
# A B C D E F G H I J K L M N O P Q R S T U V W X Y Z

5bugs - Appetite At First Sight tab

Tuning: half-step down

~ - let it rrrriiing
. - palm mute
s - slide
h - hammer-on
p - pull-off

tabbed by chibi xP

~RHYTHM GUITAR~


Intro 1

e|---------------------------------------------------------------------------------------------|
B|-10---10---10---10---10----10----10----10----13----13----12----12----10----10----12----12----|
G|----9----9----9----9----10----10----10----10----10----10----10----10----10----10----10----10-|
D|---------------------------------------------------------------------------------------------|
A|---------------------------------------------------------------------------------------------|
E|---------------------------------------------------------------------------------------------|


Intro 2

e|---------------------------------------------------------------------------------------------|
B|-10---10---10---10---10----10----10----10----10----10----10----10----10----10----10----10----|
G|----9----9----9----9----10----10----10----10----10----10----10----10----10----10----10----10-|
D|---------------------------------------------------------------------------------------------|
A|---------------------------------------------------------------------------------------------|
E|---------------------------------------------------------------------------------------------|


e|---------------------------------------------------------------------------------------------|
B|-10---10---10---10---10----10----10----10----10----10----10----10----10----10----12----12----|
G|----9----9----9----9----10----10----10----10----10----10----10----10----10----10----10----10-|
D|---------------------------------------------------------------------------------------------|
A|---------------------------------------------------------------------------------------------|
E|---------------------------------------------------------------------------------------------|


Verse

e|-----------------------|
B|-----------------------|
G|-----------------7-7-7-|  2x
D|-7-7-7---3-3-3---7-7-7-|
A|-7-7-7---3-3-3---5-5-5-|
E|-5-5-5---1-1-1---------|


Pre-Chorus

e|-------------------------------------------------------------------------------------------------|
B|-------------------------------------------------------------------------------------------------|
G|---------------------------------7-7-7-7-7-7-7-7-7-7-7-7-7-7-7-7---------------------------------|
D|-7-7-7-7-7-7-7-7-7-7-7-7-7-7-7-7-7-7-7-7-7-7-7-7-7-7-7-7-7-7-7-7-4-4-4-4-4-4-4-4-2-2-2-2-2-2-2-2-|
A|-7-7-7-7-7-7-7-7-7-7-7-7-7-7-7-7-5-5-5-5-5-5-5-5-5-5-5-5-5-5-5-5-4-4-4-4-4-4-4-4-2-2-2-2-2-2-2-2-|
E|-5-5-5-5-5-5-5-5-5-5-5-5-5-5-5-5---------------------------------2-2-2-2-2-2-2-2-0-0-0-0-0-0-0-0-|
   . . . . . . . . . . . . . . . . . . . . . . . . . . . . . . . . . . . . . . . . . . . .. . . .


e|-------------------------------|
B|-------------------------------|
G|-------------------------------|
D|-5~-----5~-----7-7-7-7-7-7-7-7-|
A|-5~-----5~-----7-7-7-7-7-7-7-7-|
E|-3~-----3~-----5-5-5-5-5-5-5-5-|


Chorus 1

e|-----------------------------------------------------------------|
B|-----------------------------------------------------------------|
G|-----------------7-7-7-7-7-7-7-7---------------------------------|
D|-5-5-5-5-5-5-5-5-7-7-7-7-7-7-7-7-7-7-7-7-7-7-7-7-9-9-9-9-9-9-9-9-|
A|-5-5-5-5-5-5-5-5-5-5-5-5-5-5-5-5-7-7-7-7-7-7-7-7-9-9-9-9-9-9-9-9-|
E|-3-3-3-3-3-3-3-3-----------------5-5-5-5-5-5-5-5-7-7-7-7-7-7-7-7-|


e|-------------------------------------------------|
B|-------------------------------------------------|
G|-----------------7-7-7-7-7-7-7-7-----------------|
D|-5-5-5-5-5-5-5-5-7-7-7-7-7-7-7-7-7-7-7-7-7-7-7-7-|
A|-5-5-5-5-5-5-5-5-5-5-5-5-5-5-5-5-7-7-7-7-7-7-7-7-|
E|-3-3-3-3-3-3-3-3-----------------5-5-5-5-5-5-5-5-|


Fill 1

e|---------------|
B|---------------|
G|-7-7-7-7-------|
D|-7-7-7-7-7-7-7-|
A|-5-5-5-5-7-7-7-|
E|---------5-5-5-|


Chorus 2

e|-----------------------------------------------------------------|
B|-----------------------------------------------------------------|
G|-----------------7-7-7-7-7-7-7-7---------------------------------|
D|-5-5-5-5-5-5-5-5-7-7-7-7-7-7-7-7-7-7-7-7-7-7-7-7-9-9-9-9-9-9-9-9-|
A|-5-5-5-5-5-5-5-5-5-5-5-5-5-5-5-5-7-7-7-7-7-7-7-7-9-9-9-9-9-9-9-9-|
E|-3-3-3-3-3-3-3-3-----------------5-5-5-5-5-5-5-5-7-7-7-7-7-7-7-7-|


e|---------------|
B|---------------|
G|---------------|
D|-5-5~-----6-6~-|
A|-5-5~-----7-7~-|
E|-3-3~-----4-4~-|


Intro 2

e|---------------------------------------------------------------------------------------------|
B|-10---10---10---10---10----10----10----10----10----10----10----10----10----10----10----10----|
G|----9----9----9----9----10----10----10----10----10----10----10----10----10----10----10----10-|
D|---------------------------------------------------------------------------------------------|
A|---------------------------------------------------------------------------------------------|
E|---------------------------------------------------------------------------------------------|


e|---------------------------------------------------------------------------------------------|
B|-10---10---10---10---10----10----10----10----10----10----10----10----10----10----12----12----|
G|----9----9----9----9----10----10----10----10----10----10----10----10----10----10----10----10-|
D|---------------------------------------------------------------------------------------------|
A|---------------------------------------------------------------------------------------------|
E|---------------------------------------------------------------------------------------------|


Verse

e|-----------------------|
B|-----------------------|
G|-----------------7-7-7-|  2x
D|-7-7-7---3-3-3---7-7-7-|
A|-7-7-7---3-3-3---5-5-5-|
E|-5-5-5---1-1-1---------|


Pre-Chorus

e|-------------------------------------------------------------------------------------------------|
B|-------------------------------------------------------------------------------------------------|
G|---------------------------------7-7-7-7-7-7-7-7-7-7-7-7-7-7-7-7---------------------------------|
D|-7-7-7-7-7-7-7-7-7-7-7-7-7-7-7-7-7-7-7-7-7-7-7-7-7-7-7-7-7-7-7-7-4-4-4-4-4-4-4-4-2-2-2-2-2-2-2-2-|
A|-7-7-7-7-7-7-7-7-7-7-7-7-7-7-7-7-5-5-5-5-5-5-5-5-5-5-5-5-5-5-5-5-4-4-4-4-4-4-4-4-2-2-2-2-2-2-2-2-|
E|-5-5-5-5-5-5-5-5-5-5-5-5-5-5-5-5---------------------------------2-2-2-2-2-2-2-2-0-0-0-0-0-0-0-0-|
   . . . . . . . . . . . . . . . . . . . . . . . . . . . . . . . . . . . . . . . . . . . .. . . .


e|---------------------------|
B|---------------------------|
G|---------------------------|
D|-5~-----5~-----7-7-7-7-7-7-|
A|-5~-----5~-----7-7-7-7-7-7-|
E|-3~-----3~-----5-5-5-5-5-5-|


Chorus 1

e|-----------------------------------------------------------------|
B|-----------------------------------------------------------------|
G|-----------------7-7-7-7-7-7-7-7---------------------------------|
D|-5-5-5-5-5-5-5-5-7-7-7-7-7-7-7-7-7-7-7-7-7-7-7-7-9-9-9-9-9-9-9-9-|
A|-5-5-5-5-5-5-5-5-5-5-5-5-5-5-5-5-7-7-7-7-7-7-7-7-9-9-9-9-9-9-9-9-|
E|-3-3-3-3-3-3-3-3-----------------5-5-5-5-5-5-5-5-7-7-7-7-7-7-7-7-|


e|-------------------------------------------------|
B|-------------------------------------------------|
G|-----------------7-7-7-7-7-7-7-7-----------------|
D|-5-5-5-5-5-5-5-5-7-7-7-7-7-7-7-7-7-7-7-7-7-7-7-7-|
A|-5-5-5-5-5-5-5-5-5-5-5-5-5-5-5-5-7-7-7-7-7-7-7-7-|
E|-3-3-3-3-3-3-3-3-----------------5-5-5-5-5-5-5-5-|


Fill 1

e|---------------|
B|---------------|
G|-7-7-7-7-------|
D|-7-7-7-7-7-7-7-|
A|-5-5-5-5-7-7-7-|
E|---------5-5-5-|


Chorus 3

e|-----------------------------------------------------------------|
B|-----------------------------------------------------------------|
G|-----------------7-7-7-7-7-7-7-7---------------------------------|
D|-5-5-5-5-5-5-5-5-7-7-7-7-7-7-7-7-7-7-7-7-7-7-7-7-9-9-9-9-9-9-9-9-|
A|-5-5-5-5-5-5-5-5-5-5-5-5-5-5-5-5-7-7-7-7-7-7-7-7-9-9-9-9-9-9-9-9-|
E|-3-3-3-3-3-3-3-3-----------------5-5-5-5-5-5-5-5-7-7-7-7-7-7-7-7-|

e|-----------------------------------------------------|
B|-----------------------------------------------------|
G|--------7-7~-----------------------------------------|
D|-5-5~---7-7~---7-7~--------5-5~---6-6~---7-7-7-7-7-7-|
A|-5-5~---5-5~---7-7~--------5-5~---7-7~---7-7-7-7-7-7-|
E|-3-3~----------5-5~--------3-3~---4-4~---5-5-5-5-5-5-|


Fill 2 only lead guitar


Interlude (clean)

e|---------------------------------------------------------------------|
B|---------------------------------------------------------------------|
G|---------------------------------------------------------------------|
D|-4~--------------------------------4~--------------------------------|
A|-------4~----5~----7~--7s9---5~----------4~----5~----7~--7s9---5-5-5-|
E|---------------------------------------------------------------------|


Fill 2 only lead guitar


Chorus 4

e|--------------------------------------------------|
B|--------------------------------------------------|
G|---------7-7----------------------------7~--------|
D|-5-5-----7-7-----7-7-----9-9-----5~-----7~-----7~-|
A|-5-5-----5-5-----7-7-----9-9-----5~-----5~-----7~-|
E|-3-3-------------5-5-----7-7-----3~------------5~-|


Chorus 5

e|-----------------------------------------------------------------|
B|-----------------------------------------------------------------|
G|-----------------7-7-7-7-7-7-7-7---------------------------------|
D|-5-5-5-5-5-5-5-5-7-7-7-7-7-7-7-7-7-7-7-7-7-7-7-7-9-9-9-9-9-9-9-9-|
A|-5-5-5-5-5-5-5-5-5-5-5-5-5-5-5-5-7-7-7-7-7-7-7-7-9-9-9-9-9-9-9-9-|
E|-3-3-3-3-3-3-3-3-----------------5-5-5-5-5-5-5-5-7-7-7-7-7-7-7-7-|


e|-----------------------------------------------------------------|
B|-----------------------------------------------------------------|
G|-----------------7-7-7-7-7-7-7-7---------------------------------|
D|-5-5-5-5-5-5-5-5-7-7-7-7-7-7-7-7-7-7-7-7-7-7-7-7-7-7-7-7-7-7-7-7-|
A|-5-5-5-5-5-5-5-5-5-5-5-5-5-5-5-5-7-7-7-7-7-7-7-7-7-7-7-7-7-7-7-7-|
E|-3-3-3-3-3-3-3-3-----------------5-5-5-5-5-5-5-5-5-5-5-5-5-5-5-5-|


Outro

e|-----------------------------------------------------------------------------|
B|-----------------------------------------------------------------------------|
G|-----------------------------------------------------------------------------|
D|-5-5-5-5-5-5-5-5-6-6-6-6-6-6-6-6-5-5-5-5-5-5-5-5-6-6-6-6-6-6-6-6-5-5~---7-7~-|
A|-5-5-5-5-5-5-5-5-7-7-7-7-7-7-7-7-5-5-5-5-5-5-5-5-7-7-7-7-7-7-7-7-5-5~---7-7~-|
E|-3-3-3-3-3-3-3-3-4-4-4-4-4-4-4-4-3-3-3-3-3-3-3-3-4-4-4-4-4-4-4-4-3-3~---5-5~-|


e|--------------------|
B|--------------------|
G|-7-7-7-7-7-7-7-7-7\-|
D|-7-7-7-7-7-7-7-7-7\-|
A|-5-5-5-5-5-5-5-5-5\-|
E|--------------------|


~~~~~~~~~~~~~~~~~~~~~~~~~~~~~~~~~~~~~~~~~~~~~~~~~~~~~~~~~~~~~~~~~~~~~~~~~~~~~~~~~~~~~~~~~~~~~


~LEAD GUITAR~


Intro 2

e|-----------------------------------------------------------------------------------------|
B|-----------------------------------------------------------------------------------------|
G|-9-9-9-9-9-9-9-9-14-14-14-14-14-14-14-14-17-17-17-17-16-16-16-16-14-14-14-14-16-16-16-16-|
D|-x-x-x-x-x-x-x-x--x--x--x--x--x--x--x--x--x--x--x--x--x--x--x--x--x--x--x--x--x--x--x--x-|
A|-7-7-7-7-7-7-7-7-12-12-12-12-12-12-12-12-15-15-15-15-14-14-14-14-12-12-12-12-14-14-14-14-|
E|-----------------------------------------------------------------------------------------|


e|-----------------------------------------------------------------------------------------|
B|-----------------------------------------------------------------------------------------|
G|-9-9-9-9-9-9-9-9-14-14-14-14-14-14-14-14-17-17-17-17-16-16-16-16-14-14-14-14-10-10-10-10-|
D|-x-x-x-x-x-x-x-x--x--x--x--x--x--x--x--x--x--x--x--x--x--x--x--x--x--x--x--x--x--x--x--x-|
A|-7-7-7-7-7-7-7-7-12-12-12-12-12-12-12-12-15-15-15-15-14-14-14-14-12-12-12-12--8--8--8--8-|
E|-----------------------------------------------------------------------------------------|


Verse

e|-----------------------|
B|-----------------------|
G|-----------------7-7-7-|  2x
D|-7-7-7---3-3-3---7-7-7-|
A|-7-7-7---3-3-3---5-5-5-|
E|-5-5-5---1-1-1---------|


Pre-Chorus

e|-------------------------------------------------------------------------------------------------|
B|-------------------------------------------------------------------------------------------------|
G|---------------------------------7-7-7-7-7-7-7-7-7-7-7-7-7-7-7-7---------------------------------|
D|-7-7-7-7-7-7-7-7-7-7-7-7-7-7-7-7-7-7-7-7-7-7-7-7-7-7-7-7-7-7-7-7-4-4-4-4-4-4-4-4-2-2-2-2-2-2-2-2-|
A|-7-7-7-7-7-7-7-7-7-7-7-7-7-7-7-7-5-5-5-5-5-5-5-5-5-5-5-5-5-5-5-5-4-4-4-4-4-4-4-4-2-2-2-2-2-2-2-2-|
E|-5-5-5-5-5-5-5-5-5-5-5-5-5-5-5-5---------------------------------2-2-2-2-2-2-2-2-0-0-0-0-0-0-0-0-|
   . . . . . . . . . . . . . . . . . . . . . . . . . . . . . . . . . . . . . . . . . . . .. . . .


e|-------------------------------|
B|-------------------------------|
G|-------------------------------|
D|-5~-----5~-----7-7-7-7-7-7-7-7-|
A|-5~-----5~-----7-7-7-7-7-7-7-7-|
E|-3~-----3~-----5-5-5-5-5-5-5-5-|


Chorus 1

e|-----------------------------------------------------------------|
B|-----------------------------------------------------------------|
G|-----------------7-7-7-7-7-7-7-7---------------------------------|
D|-5-5-5-5-5-5-5-5-7-7-7-7-7-7-7-7-7-7-7-7-7-7-7-7-9-9-9-9-9-9-9-9-|
A|-5-5-5-5-5-5-5-5-5-5-5-5-5-5-5-5-7-7-7-7-7-7-7-7-9-9-9-9-9-9-9-9-|
E|-3-3-3-3-3-3-3-3-----------------5-5-5-5-5-5-5-5-7-7-7-7-7-7-7-7-|


e|-------------------------------------------------|
B|-------------------------------------------------|
G|-----------------7-7-7-7-7-7-7-7-----------------|
D|-5-5-5-5-5-5-5-5-7-7-7-7-7-7-7-7-7-7-7-7-7-7-7-7-|
A|-5-5-5-5-5-5-5-5-5-5-5-5-5-5-5-5-7-7-7-7-7-7-7-7-|
E|-3-3-3-3-3-3-3-3-----------------5-5-5-5-5-5-5-5-|


Fill 1

e|-------------------|
B|-------------------|
G|-14-14-14-14-9-9-9-|
D|--x--x--x--x-x-x-x-|
A|-12-12-12-12-7-7-7-|
E|-------------------|


Chorus 2

e|-----------------------------------------------------------------|
B|-----------------------------------------------------------------|
G|-----------------7-7-7-7-7-7-7-7---------------------------------|
D|-5-5-5-5-5-5-5-5-7-7-7-7-7-7-7-7-7-7-7-7-7-7-7-7-9-9-9-9-9-9-9-9-|
A|-5-5-5-5-5-5-5-5-5-5-5-5-5-5-5-5-7-7-7-7-7-7-7-7-9-9-9-9-9-9-9-9-|
E|-3-3-3-3-3-3-3-3-----------------5-5-5-5-5-5-5-5-7-7-7-7-7-7-7-7-|


e|---------------|
B|---------------|
G|----------9-9~-|
D|-5-5~-----x-x~-|
A|-x-x~-----7-7~-|
E|-3-3~----------|


Intro 2

e|-----------------------------------------------------------------------------------------|
B|-----------------------------------------------------------------------------------------|
G|-9-9-9-9-9-9-9-9-14-14-14-14-14-14-14-14-17-17-17-17-16-16-16-16-14-14-14-14-16-16-16-16-|
D|-x-x-x-x-x-x-x-x--x--x--x--x--x--x--x--x--x--x--x--x--x--x--x--x--x--x--x--x--x--x--x--x-|
A|-7-7-7-7-7-7-7-7-12-12-12-12-12-12-12-12-15-15-15-15-14-14-14-14-12-12-12-12-14-14-14-14-|
E|-----------------------------------------------------------------------------------------|


e|-----------------------------------------------------------------------------------------|
B|-----------------------------------------------------------------------------------------|
G|-9-9-9-9-9-9-9-9-14-14-14-14-14-14-14-14-17-17-17-17-16-16-16-16-14-14-14-14-10-10-10-10-|
D|-x-x-x-x-x-x-x-x--x--x--x--x--x--x--x--x--x--x--x--x--x--x--x--x--x--x--x--x--x--x--x--x-|
A|-7-7-7-7-7-7-7-7-12-12-12-12-12-12-12-12-15-15-15-15-14-14-14-14-12-12-12-12--8--8--8--8-|
E|-----------------------------------------------------------------------------------------|


Verse

e|-----------------------|
B|-----------------------|
G|-----------------7-7-7-|  2x
D|-7-7-7---3-3-3---7-7-7-|
A|-7-7-7---3-3-3---5-5-5-|
E|-5-5-5---1-1-1---------|


Pre-Chorus

e|-------------------------------------------------------------------------------------------------|
B|-------------------------------------------------------------------------------------------------|
G|---------------------------------7-7-7-7-7-7-7-7-7-7-7-7-7-7-7-7---------------------------------|
D|-7-7-7-7-7-7-7-7-7-7-7-7-7-7-7-7-7-7-7-7-7-7-7-7-7-7-7-7-7-7-7-7-4-4-4-4-4-4-4-4-2-2-2-2-2-2-2-2-|
A|-7-7-7-7-7-7-7-7-7-7-7-7-7-7-7-7-5-5-5-5-5-5-5-5-5-5-5-5-5-5-5-5-4-4-4-4-4-4-4-4-2-2-2-2-2-2-2-2-|
E|-5-5-5-5-5-5-5-5-5-5-5-5-5-5-5-5---------------------------------2-2-2-2-2-2-2-2-0-0-0-0-0-0-0-0-|
   . . . . . . . . . . . . . . . . . . . . . . . . . . . . . . . . . . . . . . . . . . . .. . . .


e|---------------------------|
B|---------------------------|
G|---------------------------|
D|-5~-----5~-----7-7-7-7-7-7-|
A|-5~-----5~-----7-7-7-7-7-7-|
E|-3~-----3~-----5-5-5-5-5-5-|


Chorus 1

e|-----------------------------------------------------------------|
B|-----------------------------------------------------------------|
G|-----------------7-7-7-7-7-7-7-7---------------------------------|
D|-5-5-5-5-5-5-5-5-7-7-7-7-7-7-7-7-7-7-7-7-7-7-7-7-9-9-9-9-9-9-9-9-|
A|-5-5-5-5-5-5-5-5-5-5-5-5-5-5-5-5-7-7-7-7-7-7-7-7-9-9-9-9-9-9-9-9-|
E|-3-3-3-3-3-3-3-3-----------------5-5-5-5-5-5-5-5-7-7-7-7-7-7-7-7-|


e|-------------------------------------------------|
B|-------------------------------------------------|
G|-----------------7-7-7-7-7-7-7-7-----------------|
D|-5-5-5-5-5-5-5-5-7-7-7-7-7-7-7-7-7-7-7-7-7-7-7-7-|
A|-5-5-5-5-5-5-5-5-5-5-5-5-5-5-5-5-7-7-7-7-7-7-7-7-|
E|-3-3-3-3-3-3-3-3-----------------5-5-5-5-5-5-5-5-|


Fill 1

e|-------------------|
B|-------------------|
G|-14-14-14-14-9-9-9-|
D|--x--x--x--x-x-x-x-|
A|-12-12-12-12-7-7-7-|
E|-------------------|


Chorus 3

e|-----------------------------------------------------------------|
B|-----------------------------------------------------------------|
G|-----------------7-7-7-7-7-7-7-7---------------------------------|
D|-5-5-5-5-5-5-5-5-7-7-7-7-7-7-7-7-7-7-7-7-7-7-7-7-9-9-9-9-9-9-9-9-|
A|-5-5-5-5-5-5-5-5-5-5-5-5-5-5-5-5-7-7-7-7-7-7-7-7-9-9-9-9-9-9-9-9-|
E|-3-3-3-3-3-3-3-3-----------------5-5-5-5-5-5-5-5-7-7-7-7-7-7-7-7-|


e|-----------------------------------------------------|
B|-----------------------------------------------------|
G|--------7-7~---9-9~---------------9-9~---9-9-9-9-9-9-|
D|-5-5~---x-x~---x-x~--------5-5~---x-x~---x-x-x-x-x-x-|
A|-x-x~---5-5~---7-7~--------x-x~---7-7~---7-7-7-7-7-7-|
E|-3-3~----------------------3-3~----------------------|


Fill 2

e|-----------------|
B|-8-8-8-8-7-7-7-7-|
G|-7-7-7-7-7-7-7-7-|
D|-----------------|
A|-----------------|
E|-----------------|


Interlude only rhythm guitar


then at the same time as the rhythm guitar plays the last 3 notes of the interlude

e|-------|
B|-------|
G|-------|
D|-5-5-5-|
A|-5-5-5-|
E|-3-3-3-|


Fill 2

e|-----------------|
B|-8-8-8-8-7-7-7-7-|
G|-7-7-7-7-7-7-7-7-|
D|-----------------|
A|-----------------|
E|-----------------|


Chorus 4

e|--------------------------------------------------|
B|--------------------------------------------------|
G|---------7-7----------------------------7~-----9--|
D|-5-5-----7-7-----7-7-----9-9-----5~-----x~-----x~-|
A|-5-5-----5-5-----7-7-----9-9-----x~-----5~-----7~-|
E|-3-3-------------5-5-----7-7-----3~---------------|


Chorus 5

e|-----------------------------------------------------------------|
B|-----------------------------------------------------------------|
G|-----------------7-7-7-7-7-7-7-7---------------------------------|
D|-5-5-5-5-5-5-5-5-7-7-7-7-7-7-7-7-7-7-7-7-7-7-7-7-9-9-9-9-9-9-9-9-|
A|-5-5-5-5-5-5-5-5-5-5-5-5-5-5-5-5-7-7-7-7-7-7-7-7-9-9-9-9-9-9-9-9-|
E|-3-3-3-3-3-3-3-3-----------------5-5-5-5-5-5-5-5-7-7-7-7-7-7-7-7-|


e|-----------------------------------------------------------------|
B|-----------------------------------------------------------------|
G|-----------------7-7-7-7-7-7-7-7---------------------------------|
D|-5-5-5-5-5-5-5-5-7-7-7-7-7-7-7-7-7-7-7-7-7-7-7-7-7-7-7-7-7-7-7-7-|
A|-5-5-5-5-5-5-5-5-5-5-5-5-5-5-5-5-7-7-7-7-7-7-7-7-7-7-7-7-7-7-7-7-|
E|-3-3-3-3-3-3-3-3-----------------5-5-5-5-5-5-5-5-5-5-5-5-5-5-5-5-|


Outro

e|----------------------------------------------------------------------------|
B|----------------------------------------------------------------------------|
G|-----------------9-9-9-9-9-9-9-9-----------------9-9-9-9-9-9-9-9-16~----18~-|
D|-5-5-5-5-5-5-5-5-x-x-x-x-x-x-x-x-5-5-5-5-5-5-5-5-x-x-x-x-x-x-x-x--x~-----x~-|
A|-x-x-x-x-x-x-x-x-7-7-7-7-7-7-7-7-x-x-x-x-x-x-x-x-7-7-7-7-7-7-7-7-14~----16~-|
E|-3-3-3-3-3-3-3-3-----------------3-3-3-3-3-3-3-3----------------------------|


e|-----------------------------|
B|-----------------------------|
G|-19-19-19-19-19-19-19-19-19\-|
D|--x--x--x--x--x--x--x--x--x\-|
A|-17-17-17-17-17-17-17-17-17\-|
E|-----------------------------|

WOOOOOOOHOOOOOOO!!

any questions e-mail me leckerlii@yahoo.de =)
Tap to rate this tab
# A B C D E F G H I J K L M N O P Q R S T U V W X Y Z