Song name
# A B C D E F G H I J K L M N O P Q R S T U V W X Y Z

6 Cycle Mind - Touch tab

Title: Touch
Artist: 6 cycle mind
Album: Panorama
Tuning: half step down (Eb Ab Db Gb Bb eb)

Arranged for 1 guitar only

Intro
|-----0--0---0----0-----------------|(2x)
|-----1---1h3-----1-----------------|
|-----0-----------2----0h2-0-0h2-0--|
|-----2-----------2--------------2--|
|--3--3-----------0-----------------|

Verse (strum each chord, down strokes)
   C         Am                  Em-F
 Feel me… I want you here by my side.
|--------------------------------------|(2x)
|-------------1------------------------|
|--0----------2---------------------2--|
|--2----------2------------------2--3--|
|--3----------0------------------2--3--|
|--------------------------------0-----|

Pre Chorus (harmonics yung nasa “( )” )
        Here I am I’m pleading…
|--(12)-------------------------------------------|
|--(12)------------------10-10-10-10-10-10-10-10--|
|--(12)-------------------------------------------|
|--(12)-------------------------------------------|
|-------------------------------------------------|
|-------------------------------------------------|

        Hear my plead its forever-ever-ever…
|--(12)----------------------------------------------------|
|--(12)------------------10-10-10-10-10-10-10-10-10\8-8-8--|
|--(12)----------------------------------------------------|
|--(12)----------------------------------------------------|
|----------------------------------------------------------|
|----------------------------------------------------------|

Chorus
             C            Am
So touch me now, feel my hand
     Em               F
You are the one, you are the one
             C               Am
So touch me now, leave your doubts
     Em           F
You are… Yes you are ohhh…

Do intro,
Verse,
Then chorus



Solo
|---------------------------------------------|
|-8-8-8-6-6-5-5-------------------------------|
|---------------5-5h7-7/9—9b10r9-7-5-4-4h5-7--|
|---------------------------------------------|
|---------------------------------------------|
|---------------------------------------------|

|-----787-------------------------------------|
|----8---8-10-10-10/12-12/13-15-17-17-15-17---|
|---9--------9--------------------------------|
|--9------------------------------------------|
|-7-------------------------------------------|
|---------------------------------------------|

|-15-13-12----------------------8----8-10-10/12-12b13r12-|
|-17-15-13-12-12b13r12-10-8-8h10-8h10--------------------|
|--------------------------------------------------------|
|--------------------------------------------------------|
|--------------------------------------------------------|
|--------------------------------------------------------|

Chorus

1st line of 1st verse

Song ends with Em chord
Tap to rate this tab
# A B C D E F G H I J K L M N O P Q R S T U V W X Y Z