Song name
# A B C D E F G H I J K L M N O P Q R S T U V W X Y Z

6 Cycle Mind - Clown tab

Help us improve GuitareTab! Take a short survey!
Band - 6 cycle mind
Song - Clown
Album - Panorama
Tab by: Roberto Asino
Tunning: Standard

/*This is the plucking tab of this song, I hope that its accurate. Try to jam with the
music and you will see. Supply some parts of this tab in chorus and refrain of the song.
For the chords, just try the verse 2 of clown chords in this site, its more accurate.*/

Intro: (Drum Beat)

Bass: Guitar 2
A-------------2-----|
E---7//////---------|

*Lead: Guitar 1
e-----7---5---3----|
B------------------|
G---4---4---4------|
D------------------|
A------------------|
E------------------|

Bass: Guitar 2
A----2--------------|

Lead: Guitar 1
e-----3-----5--5s7---3---|
B------------------------|
G---4---4----------------|
D------------------------|
A------------------------|
E------------------------|

Bass: Guitar 2
A------2-------------|

(Repeat * 2x)

Lead: Guitar 1
e-----7---5---3---|---////---12--10----------|
B-----------------|------------------12--10--|
G---4---4---4-----|--////--------------------|
D-----------------|--------------------------|
A-----------------|--------------------------|
E-----------------|--------------------------|

/*Sequencial lang mga tol 2ng tab ko.. salitan lang ang bass at lead, pero sa mga
magagaling pagsabayin n ninu.. magaling nmn kau eh.. ^^.. my notice nmn ako kung
kailan kau magloloop ng pattern.. (For Loop)=====>pounch line only...*/
Related for Clown tab