Guitaretab - guitar tabs
Song name
# A B C D E F G H I J K L M N O P Q R S T U V W X Y Z

6 Cycle Mind - Upside Down tab

Standard tuning po... (^^,)

Revised ko ito ngayong week.. so wait ha? half step.. paki rate po! salamat!

Intro:

e |3-3-3-3--3-3-3-3--4-4-4-4--6-6-6-6---------|
B |4-4-4-4--3-3-3-3--4-4-4-4--6-6-6-6---------|
G |3-3-3-3--3-3-3-3--5-5-5-5--7-7-7-7---------|(2x)
D |x-x-x-x--5-5-5-5--6-6-6-6--8-8-8-8---------|
A |x-x-x-x--5-5-5-5--6-6-6-6--8-8-8-8---------|
E |x-x-x-x--3-3-3-3--4-4-4-4--6-6-6-6---------|

Verse 1:

     Iíve been spending...
e |3-3-3-3--3-3-3-3--4-4-4-4--6-6-6-6---------|
B |4-4-4-4--3-3-3-3--4-4-4-4--6-6-6-6---------|
G |3-3-3-3--3-3-3-3--5-5-5-5--7-7-7-7---------|
D |x-x-x-x--5-5-5-5--6-6-6-6--8-8-8-8---------|
A |x-x-x-x--5-5-5-5--6-6-6-6--8-8-8-8---------|
E |x-x-x-x--3-3-3-3--4-4-4-4--6-6-6-6---------|

     Lie awake in...
e |3-3-3-3--3-3-3-3--4-4-4-4--6-6-6-6---------|
B |4-4-4-4--3-3-3-3--4-4-4-4--6-6-6-6---------|
G |3-3-3-3--3-3-3-3--5-5-5-5--7-7-7-7---------|
D |x-x-x-x--5-5-5-5--6-6-6-6--8-8-8-8---------|
A |x-x-x-x--5-5-5-5--6-6-6-6--8-8-8-8---------|
E |x-x-x-x--3-3-3-3--4-4-4-4--6-6-6-6---------|

     I donít know where...
e |3-3-3-3--3-3-3-3--4-4-4-4--6-6-6-6---------|
B |4-4-4-4--3-3-3-3--4-4-4-4--6-6-6-6---------|
G |3-3-3-3--3-3-3-3--5-5-5-5--7-7-7-7---------|
D |x-x-x-x--5-5-5-5--6-6-6-6--8-8-8-8---------|
A |x-x-x-x--5-5-5-5--6-6-6-6--8-8-8-8---------|
E |x-x-x-x--3-3-3-3--4-4-4-4--6-6-6-6---------|

     Should I stay...
e |3-3-3-3--3-3-3-3--4-4-4-4--6-6-6-6---------|
B |4-4-4-4--3-3-3-3--4-4-4-4--6-6-6-6---------|
G |3-3-3-3--3-3-3-3--5-5-5-5--7-7-7-7---------|
D |x-x-x-x--5-5-5-5--6-6-6-6--8-8-8-8---------|
A |x-x-x-x--5-5-5-5--6-6-6-6--8-8-8-8---------|
E |x-x-x-x--3-3-3-3--4-4-4-4--6-6-6-6---------|

Refrain:

     Baby, you donít...
e |3-3-3-3--3-3-3-3--4-4-4-4--6-6-6-6---------|
B |4-4-4-4--3-3-3-3--4-4-4-4--6-6-6-6---------|
G |3-3-3-3--3-3-3-3--5-5-5-5--7-7-7-7---------|
D |5-5-5-5--3-3-3-3--6-6-6-6--8-8-8-8---------|
A |3-3-3-3--5-5-5-5--6-6-6-6--8-8-8-8---------|
E |3-3-3-3--3-3-3-3--4-4-4-4--6-6-6-6---------|

     Oh and then...
e |3-3-3-3--3-3-3-3--4-4-4-4--6-6-6-6---------|
B |4-4-4-4--3-3-3-3--4-4-4-4--6-6-6-6---------|
G |3-3-3-3--3-3-3-3--5-5-5-5--7-7-7-7---------|
D |5-5-5-5--3-3-3-3--6-6-6-6--8-8-8-8---------|
A |3-3-3-3--5-5-5-5--6-6-6-6--8-8-8-8---------|
E |3-3-3-3--3-3-3-3--4-4-4-4--6-6-6-6---------|

Chorus:

     Youíre turning me on...
e |3-3-3-3--3-3-3-3--4-4-4-4--6-6-6-6---------|
B |4-4-4-4--3-3-3-3--4-4-4-4--6-6-6-6---------|
G |3-3-3-3--3-3-3-3--5-5-5-5--7-7-7-7---------|
D |x-x-x-x--5-5-5-5--6-6-6-6--8-8-8-8---------|
A |x-x-x-x--5-5-5-5--6-6-6-6--8-8-8-8---------|
E |x-x-x-x--3-3-3-3--4-4-4-4--6-6-6-6---------|

     Youíre turning me on...
e |3-3-3-3--3-3-3-3--4-4-4-4--6-6-6-6---------|
B |4-4-4-4--3-3-3-3--4-4-4-4--6-6-6-6---------|
G |3-3-3-3--3-3-3-3--5-5-5-5--7-7-7-7---------|
D |x-x-x-x--5-5-5-5--6-6-6-6--8-8-8-8---------|
A |x-x-x-x--5-5-5-5--6-6-6-6--8-8-8-8---------|
E |x-x-x-x--3-3-3-3--4-4-4-4--6-6-6-6---------|

e |3-3-3-3--3-3-3-3--4-4-4-4--6-6-6-6---------|
B |4-4-4-4--3-3-3-3--4-4-4-4--6-6-6-6---------|
G |3-3-3-3--3-3-3-3--5-5-5-5--7-7-7-7---------|
D |x-x-x-x--5-5-5-5--6-6-6-6--8-8-8-8---------|
A |x-x-x-x--5-5-5-5--6-6-6-6--8-8-8-8---------|
E |x-x-x-x--3-3-3-3--4-4-4-4--6-6-6-6---------|

Verse 2:

     Everytime I hurt you...
e |3-3-3-3--3-3-3-3--4-4-4-4--6-6-6-6---------|
B |4-4-4-4--3-3-3-3--4-4-4-4--6-6-6-6---------|
G |3-3-3-3--3-3-3-3--5-5-5-5--7-7-7-7---------|
D |x-x-x-x--5-5-5-5--6-6-6-6--8-8-8-8---------|
A |x-x-x-x--5-5-5-5--6-6-6-6--8-8-8-8---------|
E |x-x-x-x--3-3-3-3--4-4-4-4--6-6-6-6---------|
[ Tab from: http://www.guitaretab.com/numeric/6-cycle-mind/153721.html ]
     Tired of thinking of you...
e |3-3-3-3--3-3-3-3--4-4-4-4--6-6-6-6---------|
B |4-4-4-4--3-3-3-3--4-4-4-4--6-6-6-6---------|
G |3-3-3-3--3-3-3-3--5-5-5-5--7-7-7-7---------|
D |x-x-x-x--5-5-5-5--6-6-6-6--8-8-8-8---------|
A |x-x-x-x--5-5-5-5--6-6-6-6--8-8-8-8---------|
E |x-x-x-x--3-3-3-3--4-4-4-4--6-6-6-6---------|

     Well, I just wanted...
e |3-3-3-3--3-3-3-3--4-4-4-4--6-6-6-6---------|
B |4-4-4-4--3-3-3-3--4-4-4-4--6-6-6-6---------|
G |3-3-3-3--3-3-3-3--5-5-5-5--7-7-7-7---------|
D |x-x-x-x--5-5-5-5--6-6-6-6--8-8-8-8---------|
A |x-x-x-x--5-5-5-5--6-6-6-6--8-8-8-8---------|
E |x-x-x-x--3-3-3-3--4-4-4-4--6-6-6-6---------|

     I donít know where...
e |3-3-3-3--3-3-3-3--4-4-4-4--6-6-6-6---------|
B |4-4-4-4--3-3-3-3--4-4-4-4--6-6-6-6---------|
G |3-3-3-3--3-3-3-3--5-5-5-5--7-7-7-7---------|
D |x-x-x-x--5-5-5-5--6-6-6-6--8-8-8-8---------|
A |x-x-x-x--5-5-5-5--6-6-6-6--8-8-8-8---------|
E |x-x-x-x--3-3-3-3--4-4-4-4--6-6-6-6---------|

Refrain:

     Baby, you donít...
e |3-3-3-3--3-3-3-3--4-4-4-4--6-6-6-6---------|
B |4-4-4-4--3-3-3-3--4-4-4-4--6-6-6-6---------|
G |3-3-3-3--3-3-3-3--5-5-5-5--7-7-7-7---------|
D |5-5-5-5--3-3-3-3--6-6-6-6--8-8-8-8---------|
A |3-3-3-3--5-5-5-5--6-6-6-6--8-8-8-8---------|
E |3-3-3-3--3-3-3-3--4-4-4-4--6-6-6-6---------|

     Oh and then...
e |3-3-3-3--3-3-3-3--4-4-4-4--6-6-6-6---------|
B |4-4-4-4--3-3-3-3--4-4-4-4--6-6-6-6---------|
G |3-3-3-3--3-3-3-3--5-5-5-5--7-7-7-7---------|
D |5-5-5-5--3-3-3-3--6-6-6-6--8-8-8-8---------|
A |3-3-3-3--5-5-5-5--6-6-6-6--8-8-8-8---------|
E |3-3-3-3--3-3-3-3--4-4-4-4--6-6-6-6---------|

Chorus:

     Youíre turning me on...
e |3-3-3-3--3-3-3-3--4-4-4-4--6-6-6-6---------|
B |4-4-4-4--3-3-3-3--4-4-4-4--6-6-6-6---------|
G |3-3-3-3--3-3-3-3--5-5-5-5--7-7-7-7---------|
D |x-x-x-x--5-5-5-5--6-6-6-6--8-8-8-8---------|
A |x-x-x-x--5-5-5-5--6-6-6-6--8-8-8-8---------|
E |x-x-x-x--3-3-3-3--4-4-4-4--6-6-6-6---------|

     Youíre turning me on...
e |3-3-3-3--3-3-3-3--4-4-4-4--6-6-6-6---------|
B |4-4-4-4--3-3-3-3--4-4-4-4--6-6-6-6---------|
G |3-3-3-3--3-3-3-3--5-5-5-5--7-7-7-7---------|
D |x-x-x-x--5-5-5-5--6-6-6-6--8-8-8-8---------|
A |x-x-x-x--5-5-5-5--6-6-6-6--8-8-8-8---------|
E |x-x-x-x--3-3-3-3--4-4-4-4--6-6-6-6---------|

Bridge:

               Oh you know...
e |3-3-3-3-3-3-3-3--4-4-4-4-4-4-4-4-----------|
B |4-4-4-4-4-4-4-4--4-4-4-4-4-4-4-4-----------|
G |5-5-5-5-5-5-5-5--5-5-5-5-5-5-5-5-----------|
D |5-5-5-5-5-5-5-5--6-6-6-6-6-6-6-6-----------|
A |3-3-3-3-3-3-3-3--6-6-6-6-6-6-6-6-----------|
E |3-3-3-3-3-3-3-3--4-4-4-4-4-4-4-4-----------|

               You know...
e |3-3-3-3-3-3-3-3--4-4-4-4-4-4-4-4-----------|
B |4-4-4-4-4-4-4-4--4-4-4-4-4-4-4-4-----------|
G |5-5-5-5-5-5-5-5--5-5-5-5-5-5-5-5-----------|
D |5-5-5-5-5-5-5-5--6-6-6-6-6-6-6-6-----------|
A |3-3-3-3-3-3-3-3--6-6-6-6-6-6-6-6-----------|
E |3-3-3-3-3-3-3-3--4-4-4-4-4-4-4-4-----------|

Chorus:(Vocals and Drums lang po dito)

Youíre turning me on, you turn me around
You turn my whole world upside down
Youíre turning me on, you turn me around
You turn my whole world upside down

Chorus:

     Youíre turning me on...
e |3-3-3-3--3-3-3-3--4-4-4-4--6-6-6-6---------|
B |4-4-4-4--3-3-3-3--4-4-4-4--6-6-6-6---------|
G |3-3-3-3--3-3-3-3--5-5-5-5--7-7-7-7---------|
D |x-x-x-x--5-5-5-5--6-6-6-6--8-8-8-8---------|
A |x-x-x-x--5-5-5-5--6-6-6-6--8-8-8-8---------|
E |x-x-x-x--3-3-3-3--4-4-4-4--6-6-6-6---------|

     Youíre turning me on...
e |3-3-3-3--3-3-3-3--4-4-4-4--6-6-6-6---------|
B |4-4-4-4--3-3-3-3--4-4-4-4--6-6-6-6---------|
G |3-3-3-3--3-3-3-3--5-5-5-5--7-7-7-7---------|
D |x-x-x-x--5-5-5-5--6-6-6-6--8-8-8-8---------|
A |x-x-x-x--5-5-5-5--6-6-6-6--8-8-8-8---------|
E |x-x-x-x--3-3-3-3--4-4-4-4--6-6-6-6---------|

 ^^,
Related for Upside Down tab