Song name
# A B C D E F G H I J K L M N O P Q R S T U V W X Y Z

6 Cycle Mind - Gaya Ng Noon tab

|---------------------------------------------------------------------------------|
|---------------------------------------------------------------------------------|
|---------------------------------------------------------------------------------|3x
|--14-12-14---14-12-14-12-11-12---12-11-12-----------------------10\12-11---------| 
|-------------------------------------------12-10-12---12-10-12---------12-14-----|
|---------------------------------------------------------------------------------|


|---------------------------------------------------------------------------------------|
|---------------------------------------------------------------------------------------|
|---------------------------------------------------------------------------------------|
|--14-12-14---14-12-14-12-11-12---12-11-12----------------------------------------------| 
|-------------------------------------------12-10-12---12-10-12-12-10-12---10-9---------|
|-------------------------------------------------------------------------------12--10--|
Tap to rate this tab
 
# A B C D E F G H I J K L M N O P Q R S T U V W X Y Z