Guitaretab - guitar tabs
Song name
# A B C D E F G H I J K L M N O P Q R S T U V W X Y Z

6 Cycle Mind - Sige tab

Title: Sige
Artist: 6 cycle mind
Album: Permission to Shine
Tabbed by: Koko capule
Tuning: Normal,(E,A,D,G,B,E)

*  <----artificial harmonics(right thumb harmonics;paiyakin)
+  <----natural harmonics
~  <----tremolo
b  <----bend
h  <----hammer-on
p  <----pull-off
x  <----palm mute
>  <----reverb

i know this song is quite old.. but 
it sounds really good!!! that's why  idecided to tab
it!!! some of the info on my tab is not exactly 
my doing, but when i saw the other tabs in the
network, i thought they were missing some tabs
for the lead guitar.=)
------------------------------------------------------------|
for the intro, there are harmonics involved.                |
(the "eeeee" sounds)..                                      |
i'll just add them in in the future..                       |
------------------------------------------------------------|

------------------------------------------------------------|
Update:                                                     |
                                                            |
April 5, 2007                                               |
                                                            |
-Added the "eeeee" Sounds(which was really long overdue :D) |
-Improved the chorus and the second verse                   |
-changed some chords (well, actually, only G...)            |
-and the intro too! :D                                      |
-and the bridge!!!                                          |
------------------------------------------------------------|

Intro Part 1:

juz listen to how it's played

Gtr.1

E|---------------------------------------------------------|
B|-7+---many-times-----------------------------------------|
G|---------------------------------------------------------|
D|---------------------------------------------------------|
A|---------------------------------------------------------|
E|---------------------------------------------------------|

Gtr.2

E|---------------------------------------------------------|
B|--------7+--strum once w\harmonics-----------------------|
G|--------7+--strum once w\harmonics---------5---s---3s5---|
D|--------7+--strum once w\harmonics---------5---s---3s5---|
A|-------------------------------------------3---s---1s3---|
E|---------------------------------------------------------|
Intro part 2:

Only guitar 2 will
apply harmonics in this riff.
on the second time it is played,
no harmonics should be applied.

Gtr.1

E|---------------------------------------------------|  
B|--------------------------------------3s5-4-3------|
G|----------------------------------------------0-2*-| x2
D|---------------------------------------------------|  
A|-3-0---0----5h6-7-6-5-3-5-x---3-0---0--------------| 
E|-----3----------------------------3----------------|

Gtr.2

E|---------------------------------------------------|  
B|--------------------------------------3s5-4-3------|
G|----------------------------------------------0-2*-|
D|---------------------------------------------------|  
A|-3-0---0----5h6-7-6-5-3-5-x---3-0---0--------------| 
E|-----3----------------------------3----------------|

E|---------------------------------------------------|  
B|----------------------------------------5-4-3------|
G|----------------------------------------4-3-2-0-2--|
D|----------------------------------------------0-2--|  
A|-3-0---0----5h6-7-6-5-3-5-x---3-0---0--------------| 
E|-----3----------------------------3----------------|


                                                       
Verse1:

Both guitars are clean.

Gtr.1
   C               G               Am              F
E|-----------------------------------------------------------------|
B|-----------------------------------------------------------------|
G|-5-5-5-5-5-5-5-5-------------------------------------------------|
D|-5-5-5-5-5-5-5-5-2-2-2-2-2-2-2-2-7-7-7-7-7-7-7-7-3-3-3-3-3-3-3-3-|
A|-3-3-3-3-3-3-3-3-2-2-2-2-2-2-2-2-7-7-7-7-7-7-7-7-3-3-3-3-3-3-3-3-|
E|-----------------0-0-0-0-0-0-0-0-5-5-5-5-5-5-5-5-1-1-1-1-1-1-1-1-|  
                                                                     
                                                                      
Gtr.2                                                                 
   C               E               Am                                 
E|-----------------------------------------------------|             
B|---------------------------------10---10---10---10---|
G|-5---5---5---5---9---9---9---9----9----9----9----9---|
D|-5---5---5---5---9---9---9---9------7----7----7----7-|
A|---3---3---3---3---7---7---7---7---------------------|
E|-----------------------------------------------------|
   F
E|---------------------|
B|---------------------|
G|---------------------|
D|-3---3---3---3---3-x-|
A|-3---3---3---3---3-x-|
E|---1---1---1---1-----|
--------------------------------------------------------------------
Verse part 2:

Both guitars are distorted.

Gtr.1
   C              G             Am               F
E|-----------------------------------------------------------|
B|-----------------------------------------------------------|
G|-5---5-5--5-5----------------------------------------------|
D|-5---5-5--5-5---5---5-5---5---7---7-7---7--7---3---3-3---3-|
A|-3---3-3--3-3---5---5-5---5---7---7-7---7--7---3---3-3---3-|
E|----------------3---3-3---3---5---5-5---5--5---1---1-1---1-|

                                                                      
Gtr.2                                                                 
   C              E             Am                  F                 
E|----------------------------------------------------------------|      
B|------------------------------10---10-10--10-10-----------------|
G|-5---5-5--5-5---9---9-9---9----9----9--9---9--9---3---3-3---3s0-|
D|-5---5-5--5-5---9---9-9---9----7----7--7---7--7---3---3-3---3s0-|
A|-3---3-3--3-3---7---7-7---7-----------------------1---1-1---1s0-|
E|----------------------------------------------------------------|
----------------------------------------------------------------------
Pre-chorus:

guitar 2 is still distorted.
guitar 1 will apply an effect...i don't know what it is, but 
try to figure it out!!

Gtr.1 
   Em       Am       Em       Am       Em       Am
E|-0~~~~~~~~0~~~~~~~~0~~~~~~~~0~~~~~~~~0~~~~~~~~0~|
B|-0~~~~~~~~1~~~~~~~~0~~~~~~~~1~~~~~~~~0~~~~~~~~1~|
G|-0~~~~~~~~2~~~~~~~~0~~~~~~~~2~~~~~~~~0~~~~~~~~2~|
D|-2~~~~~~~~2~~~~~~~~2~~~~~~~~2~~~~~~~~2~~~~~~~~2~|
A|-2~~~~~~~~0~~~~~~~~2~~~~~~~~0~~~~~~~~2~~~~~~~~0~|
E|-0~~~~~~~~~~~~~~~~~0~~~~~~~~~~~~~~~~~0~~~~~~~~~~|  
                                                           x3 
Gtr.2
   E                          Am                               
E|--------------------------------------------------------|
B|--------------------------------------------------------|
G|----------------------------2-x-x-x-x-2-x-2-x-x-----0h2-|
D|-2-x-x-x-x-2-x-2-x-x-2x-x-x-2-x-x-x-x-2-x-2-x-x-0h3-----|
A|-2-x-x-x-x-2-x-2-x-x-2x-x-x-----------------------------|
E|--------------------------------------------------------|
-----------------------------------------------------------------------
then guitar 1 will switch to distortion...

Gtrs.1,2
   F               G
E|---------------------------------|
B|---------------------------------|
G|---------------------------------|
D|-3-3-3-3-3-3-3-3-5-5-5-5-5-5-5-5-|
A|-3-3-3-3-3-3-3-3-5-5-5-5-5-5-5-5-|
E|-1-1-1-1-1-1-1-1-3-3-3-3-3-3-3-3-|
-----------------------------------------------------------------------
Chorus:

Gtr.1
   C               Em              F       F             G 
E|---------------------------------------------------------|
B|---------------------------------------------------------|
G|-5-5-5-5-5-5-5-5-----------------------------------------|
D|-5-5-5-5-5-5-5-5-2-2-2-2-2-2-2-2-3-pause-3---3-3-3-3---5-|
A|-3-3-3-3-3-3-3-3-2-2-2-2-2-2-2-2-3-pause-3---3-3-3-3---5-|
E|-----------------0-0-0-0-0-0-0-0-1-pause-1---1-1-1-1---3-|

Gtr.2 
   
E|----------12-13p12----12-13p12----12-13p12-----|
B|-------15----------13----------13----------13--|
G|----14-----------------------------------------| x2 then pause
D|-12--------------------------------------------|
A|-----------------------------------------------|
E|-----------------------------------------------|
[ Tab from: http://www.guitaretab.com/numeric/6-cycle-mind/51129.html ]
E|-13p12----12-13p12----12-13p12----12-13p12----12-|
B|-------13----------13----------13----------13----|
G|-------------------------------------------------|
D|-------------------------------------------------|
A|-------------------------------------------------|
E|-------------------------------------------------|


part2:

"ang minsan, naaalala..."
   C               Em
E|---------------------------------|
B|---------------------------------|
G|-5-5-5-5-5-5-5-5-----------------|
D|-5-5-5-5-5-5-5-5-2-2-2-2-2-2-2-2-|
A|-3-3-3-3-3-3-3-3-2-2-2-2-2-2-2-2-|
E|-----------------0-0-0-0-0-0-0-0-|
   Am              F                                         
E|-----------------------------------------------|
B|-----------------------------------------------|
G|-----------------------------------------------|
D|-7-7-7-7-7-7-7-7-3-3-3-3-3-3-3-3-3-3-3-3-3-3-5-|
A|-7-7-7-7-7-7-7-7-3-3-3-3-3-3-3-3-3-3-3-3-3-3-5-|
E|-5-5-5-5-5-5-5-5-1-1-1-1-1-1-1-1-1-1-1-1-1-1-3-|


Gtr.2

E|----------12-13p12----12-13p12----12-13p12-----|
B|-------15----------13----------13----------13--|
G|----14-----------------------------------------| x3
D|-12--------------------------------------------|
A|-----------------------------------------------|
E|-----------------------------------------------|

E|-13p12----12-13p12----12-13p12----12-13p12----12-|
B|-------13----------13----------13----------13----|
G|-------------------------------------------------|
D|-------------------------------------------------|
A|-------------------------------------------------|
E|-------------------------------------------------|

E|-13p12----12-13p12----12-13p12----12-13s15-------|
B|-------13----------13----------13----------------|
G|-------------------------------------------------|
D|-------------------------------------------------|
A|-------------------------------------------------|
E|-------------------------------------------------|

-----------------------------------------------------------------
Verse2:

guitar 1 does verse chords(C,G,Am,F).

in this part, guitar 2 will apply a sort
of reverb effect...idon't know...
but if you have that effect, please do 
try this!!!
   
   C                         E
E|-0->>>>>-0->>>>>>-0->>>>>>-------------------0->>>>>>-|
B|---------6->>>>>>----------3->>>>>>-6->>>>>>----------|
G|-5->>>>>-5->>>>>>-5->>>>>>-4->>>>>>-4->>>>>>-4->>>>>>-|
D|------------------------------------------------------|
A|------------------------------------------------------|
E|------------------------------------------------------|
   A                          F
E|-------------------0->>>>>>---------------------------|
B|-1->>>>>>-6->>>>>>------------------------------------|
G|-0->>>>>>-0->>>>>>-0->>>>>>---------------------------|
D|----------------------------3->>>>>>>>>>>>>>>>>>>>>>>-|
A|------------------------------------------------------|
E|----------------------------1->>>>>>>>>>>>>>>>>>>>>>>-|

then

   C                         E
E|-0->>>>>-0->>>>>>-0->>>>>>-------------------0->>>>>>-|
B|---------6->>>>>>----------3->>>>>>-6->>>>>>----------|
G|-5->>>>>-5->>>>>>-5->>>>>>-4->>>>>>-4->>>>>>-4->>>>>>-|
D|------------------------------------------------------|
A|------------------------------------------------------|
E|------------------------------------------------------|

E|--------------------------------------------------------|
B|--------------------------------------------------------|
G|-4->>>>>>-5->>>>>>-7->>>>>>-6->>>>>>-8->>>>>>-10->>>>>>-|
D|--------------------------------------------------------|
A|--------------------------------------------------------|
E|-3->>>>>>-3->>>>>>-6->>>>>>-5->>>>>>-5->>>>>>-7-->>>>>>-|

-------------------------------------------------------
Repeat pre-chorus

Repeat chorus

-------------------------------------------------------
Solo:

During the solo, guitar 1 will play the chords
from the chorus(C,G,Am,F) two times.
   C                                 Em
E|---------------------------------------------------------------------|
B|---------------------------------------------------------------------|
G|-5-0-0-7-0-0-9-0-0-10-0-0-9-0-7*b-0-7-0-0-9-0-0-10-0-0-12-0-0-10-0-9-|
D|---------------------------------------------------------------------|
A|---------------------------------------------------------------------|
E|---------------------------------------------------------------------|

   Am                                  F
E|---------------------------------8*b------8-12p10-10-|
B|-------------------------------------8s10------------|
G|-9h10-12-9h10-12-9h10-12-9h10-12---------------------|
D|-----------------------------------------------------|
A|-----------------------------------------------------|
E|-----------------------------------------------------|

   C
E|----------12-15-12----------------12-15-12-------|
B|-------15----------15----------15----------15----|
G|----14----------------14----14----------------14-|
D|-12----------------------12----------------------|
A|-------------------------------------------------|
E|-------------------------------------------------| 

   Em
E|----------12-17-12----------------12-17-12-------|
B|-------15----------15----------15----------15----|
G|----14----------------14----14----------------14-|
D|-12----------------------12----------------------|
A|-------------------------------------------------|
E|-------------------------------------------------| 

   Am
E|----------12-15-12--------------------|
B|-------15----------15-13-15b-13-15-15-|
G|----14--------------------------------|
D|-12-----------------------------------|
A|--------------------------------------|
E|--------------------------------------|

   F
E|-----------------|
B|-7s8-------------|
G|-----7-5---7*b~~-|
D|---------7-------|
A|-----------------|
E|-----------------|
--------------------------------------------------------------
Repeat pre-chorus
--------------------------------------------------------------
Bridge:

Gtr.2

E|---8------8----8------8-----8------8-------8------8---|
B|-----8------8----8------8-----8------8---8---8------8-|
g|------------------------------------------------------|
D|------------------------------------------------------|
A|--------------------------0------0-----8--------8-----|
E|-8------8-----0-----0---------------------------------|
--------------------------------------------------------------
Both guitars are distorted.

Gtr.1
   C               G               Am              
E|-------------------------------------------------|
B|-------------------------------------------------|
G|-5-5-5-5-5-5-5-5---------------------------------|
D|-5-5-5-5-5-5-5-5-5-5-5-5-5-5-5-5-7-7-7-7-7-7-7-7-|
A|-3-3-3-3-3-3-3-3-5-5-5-5-5-5-5-5-7-7-7-7-7-7-7-7-|
E|-----------------3-3-3-3-3-3-3-3-5-5-5-5-5-5-5-5-|

                                                      
Gtr.2                                                 
   C               E                   Am
E|-------------------------------------------------------------|
B|-------------------------------------10-10-10-10-10-10-10-10-|
G|-5-5-5-5-5-5-5-5-9-9-9-9-9-9-9-9-9-9--9--9--9--9--9--9--9--9-|
D|-5-5-5-5-5-5-5-5-9-9-9-9-9-9-9-9-9-9--7--7--7--7--7--7--7--7-|
A|-3-3-3-3-3-3-3-3-7-7-7-7-7-7-7-7-7-7-------------------------|
E|-------------------------------------------------------------|
-----------------------------------------------------------------

Gtr.1

E|---------------------------------|
B|---------------------------------|
G|---------------------------------|
D|-3-3-3-3-3-3-3-3-5-5-5-5-5-5-5-5-|
A|-3-3-3-3-3-3-3-3-5-5-5-5-5-5-5-5-|
E|-1-1-1-1-1-1-1-1-3-3-3-3-3-3-3-3-|

Gtr.2

E|-------------------------------|
B|-------------------------------|
G|-3---3-3-3s5s3---3s5-5-3s5-5-3-|
D|-3---3-3-3s5s3---3s5-5-3s5-5-3-|
A|-1---1-1-1s3s1---1s3-3-1s3-3-1-|
E|-------------------------------|
-----------------------------------------------------------------
Repeat chorus

Repeat intro
-----------------------------------------------------------------

that's it!! plees rate!!

Lyrics:

Verse1

Sige!
'pag kasama ka naman
kitang-kita ko ang ating kasiyahan!!!

Sige!
wag na nating pigilan,
at di magtatagal, tayo ay liligaya!!! 

Pre-chorus

Okey lang naman ang ating
usapan
hindi na lang babalikan 
ang nakaraan, ang nakaraan!!!

Chorus

Ayos lang! basta't kasama

konting alak lang, kahit walang pulutan

ang minsan naaalala,
di magtatagal, tayo ay liligaya, woah

Verse2

Sige! pagpatuloy niyo lang
unti-unting lunurin
sa kasiyahan!!!

sige! pagpasensyahan na lang,
mga pumipigil
sa ating ligaya!

Repeat pre-chorus

Repeat chorus

Solo

Repeat pre-chorus

Repeat chorus x2
Related for Sige tab
×
Sige