Song name
# A B C D E F G H I J K L M N O P Q R S T U V W X Y Z

6 Cycle Mind - Tunay tab

Help us improve GuitareTab! Take a short survey!
e-------------------------------------------------|
B---8/10h-----------------------------------------|
G---------8---6h----------------------------------|
D-------------------------------------------------|
A-------------------------------------------------|
E-------------------------------------------------|

e-------------------------------------------------|
B---8/10h-----------------------------------------|
G---------8---6h---6--8-----13h-------------------|
D-------------------------------------------------|
A-------------------------------------------------|
E-------------------------------------------------|
Related for Tunay tab