Song name
# A B C D E F G H I J K L M N O P Q R S T U V W X Y Z

6 Cycle Mind - Intro 4 Years 9 Months tab

Title       : Intro ( 4years, 9 months)
Artist      : 6 cycle mind
Album	    : Panorama

Ear tabber  : Walter Michael De la Cruz 
E-mail add 1: Walterfdelacruz@yahoo.com
E-mail add 2: Michaelfdelacruz@yahoo.com 
School      : Saint Louis University, Baguio City
Contact no  : 09224012464
Date of Tab : 0ctober 1,2005

Ang ibig sabihin  ng half step down, mas mababa ng isang key 
ung tuning ng gitara. Hindi Standard Tuning ung gagamitin
dito.

------------------
HALF STEP DOWN    | 
Eb Ab Db Gb Bb Eb |
------------------

Eb|------3----|------3-----|------3--------|
Bb|--------3--|--------3---|------3--------|
Gb|---0-------|----0-------|------0--------|
Db|-----------|------------|------2--------|
Ab|-----------|------------|-3----3--------|
Eb|-3---------|--2---------|---------------|
    sino ang  nagsabing di  ka maiiwanan

Eb|------3----|------3-----|------3--------|
Bb|--------3--|--------3---|------3--------|
Gb|---0-------|----0-------|------0--------|
Db|-----------|------------|------2--------|
Ab|-----------|------------|-3----3--------|
Eb|-3---------|--2---------|---------------|
    sino ang  nagsabing di  ka malilimutan

Eb|------3----|------3-----|------3--------|
Bb|--------3--|--------3---|------3--------|
Gb|---0-------|----0-------|------0--------|
Db|-----------|------------|------2--------|
Ab|-----------|------------|-3----3--------|
Eb|-3---------|--2---------|---------------|
    sino ang  nagsabi di ba walang 

Eb|------3----|------3-----|------3--------|
Bb|--------3--|--------3---|------3--------|
Gb|---0-------|----0-------|------0--------|
Db|-----------|------------|---2--2--------|
Ab|-----------|------------|-3----3--------|
Eb|-3---------|--2---------|---------------|
 kundi ang pag  ibig mong     naniwala

Eb|------3----|------3-----|------3--------|
Bb|--------3--|--------3---|------3--------|
Gb|---0-------|----0-------|------0--------|
Db|-----------|------------|---2--2--------|
Ab|-----------|------------|-3----3--------|
Eb|-3---------|--2---------|---------------|
 kundi ang pag ibig kong     naniwala



For comments send me a message in Friendster. 

E-mail add 1: Walterfdelacruz@yahoo.com
E-mail add 2: Michaelfdelacruz@yahoo.com 

And u Can also add me as your friend Or send me a testimonial.hehehe
God bless!
Tap to rate this tab
# A B C D E F G H I J K L M N O P Q R S T U V W X Y Z