Song name
# A B C D E F G H I J K L M N O P Q R S T U V W X Y Z

6 Cycle Mind - Umaasa tab

Title       : Umaasa
Artist      : 6 cycle mind
Album	    : Panorama

Ear tabber  : Walter Michael De la Cruz 
E-mail add 1: Walterfdelacruz@yahoo.com
E-mail add 2: Michaelfdelacruz@yahoo.com 
School      : Saint Louis University, Baguio City
Contact no  : 09224012464

Date of Tab : January 8,2006


Intro: just continue repeating this tab
       Pwedeng Bass or lead guitar

e|------------------------|
B|------------------------|
G|------------------------|
D|------------------------|  
A|-7-9-12-11-9-11---------|
E|-5-7-10-9--7-9----------|

Umaasa kahit na wala na
Umaasa kahit na wala na


e|------------------------|
B|------------------------|
G|------------------------|
D|------------------------|  
A|-7-9-12-11-9-11---------|
E|-5-7-10-9--7-9----------|
 
Ngayong gabi
Hindi na padadaig
Handang harapin
Hindi kakapit sa patalim (kahit na)

e|------------------------|
B|------------------------|
G|------------------------|
D|------------------------|  
A|-7-9-12-11-9-11---------|
E|-5-7-10-9--7-9----------|


Pikit mata
Akong sasagupa
Hindi aatras
Hangga't mayroong lakas (kahit na)

e|------------------------|
B|------------------------|
G|------------------------|
D|------------------------|  
A|-7-9-12-11-9-11---------|
E|-5-7-10-9--7-9----------|

Rap: 
Ano man ang mangyari ako'y laging naririto
Mamumuno ano mang oras ay di ka na mabibigo
Ikaw lang ang tinitibok nitong aking puso
Sa bawat pintig nito handang huminto
Sayo'y lumulukso
Kapag ika'y nalulumbay hawakan ko ang iyong kamay
Kapag ika'y naluluway hindi ako mawawala
Kapag ika'y nalulungkot ika'y patatawanin
Pag nalagay sa alanganin ako'y iyong tawagin
At lagi kang ..ito'y kakailanganin
Ako'y magsisilbing kawayan sa lakas ng hangin
Ako ay ikaw at ikaw ay ako
Pumapaibabaw sa ikot ng mundo



For comments send me a message in Friendster. 

E-mail add 1: Walterfdelacruz@yahoo.com
E-mail add 2: Michaelfdelacruz@yahoo.com 

And u Can also add me as your friend Or send me a testimonial.hehehe
God bless!
Tap to rate this tab
# A B C D E F G H I J K L M N O P Q R S T U V W X Y Z