Guitaretab - guitar tabs
Song name
# A B C D E F G H I J K L M N O P Q R S T U V W X Y Z

6 Cycle Mind - Upside Downt tab

-----------------------------------------------------------------------------
			     Upside Down - 6 cyclemind
-----------------------------------------------------------------------------
Tabbed by:arsie
Email:rc_chie@yahoo.com


Tuning:half step lower

Intro: E-G#m-A-Bsus [2x](plucked) timing lang!
       
     E                             G#m
e|--------0--------------0-------|------0--------------0-----|
B|---0-------0-------------------|---------0-----------------|
G|---8h9--------8----------------|---4--------4--------------|
D|---9---------------------------|---6-----------------------|
A|-------------------------------|---------------------------|
E|---0---------------------------|---4-----------------------|


     Asus2                          B
e|------0-----------------0------|--0--------0---------------|
B|---0----0----------------------|-----4---------------------|
G|---2-------2-------------------|--------4------------------|
D|-------------------------------|---------------------------|
A|---0---------------------------|--2------------------------|
E|-------------------------------|---------------------------|




Preffered chords:(strummed)

     E       G#m
e|---0----|---0----|
B|---0----|---0----|
G|---1----|---4----|
D|---2----|---6----|
A|---2----|---6----|
E|---0----|---4----|


     A      Bsus     Bsus2     C#m
e|---0----|---0----|---0----|---0----|
B|---2----|---4----|---0----|---5----|
G|---2----|---4----|---8----|---6----|
D|---2----|---4----|---9----|---6----|
A|---0----|---2----|---9----|---4----|
E|--------|--------|---7----|--------|


[ Tab from: http://www.guitaretab.com/numeric/6-cycle-mind/89870.html ]
 E                              G#m           
   Iíve been spending some time, thinking iíd be alright
 A                 Bsus 
   Donít know if I could really make it tonight
 E                       G#m 
    Lie awake in the dark, come down then I start
 A                  Bsus 
   Thinking about you is almost breaking my heart
  E                              G#m                 A
   I donít know where I went wrong, or whatís going on
          Bsus 
   Baby, I feEl like our loveís lost tonight
 E                           G#m                   A
   Should I stay, should I go? Well, I really donít know
                Bsus 
   Lately Iíve been missing you so

   
   [Refrain]
  C#m              G#m                A 
   Baby, you donít understand our love lies lost
        Bsus
   But youíre still holding my hand
  C#m            G#m
   Oh and then you walk away
         A                      Bsus2
   Just tonight, I want you to stay

  
   [Chorus]

 E                     G#m                  A          
   Youíre turning me on, you turn me around
                Bsus
   You turn my whole world upside down
 E                     G#m                  A
   Youíre turning me on, you turn me around
                 Bsus
   You turn my whole world upside down


   E - G#m - A - Bsus
 

 E                    G#m                       A
   Everytime I hurt you, well itís hurting me too
                 Bsus
   Donít know if I could really stay here tonight
 E                         G#m                       A
   Tired of thinking of you, I never think that you do
               Bsus
   Tell me what am I supposed to do
 E                      G#m                     A
   Well, I just wanted to say that I need you today
                    Bsus
   Tell me itís all gonna work out alright
 E                                 G#m
   I donít know where I should I start
                        A
   But with all of my heart
               Bsus
   Baby let me be your lover tonight

 
   [repeat Refrain and Chorus]


   [bridge]

C#m-         A             
     Oh you know, you turn me upside down
C#m-      A           B(break)                       E pause
     You know,            you turn me upside down
  
  
   Youíre turning me on, you turn me around
   You turn my whole world upside down
   Youíre turning me on, you turn me around
   You turn my whole world upside down
  


 [Chorus]

 E                     G#m                  A
   Youíre turning me on, you turn me around
                Bsus
   You turn my whole world upside down
 E                     G#m                  A
   Youíre turning me on, you turn me around
                 Bsus
   You turn my whole world upside down

Related for Upside Downt tab