Guitaretab - guitar tabs
Song name
# A B C D E F G H I J K L M N O P Q R S T U V W X Y Z

6 Voltios - Loco tab

-----------------------------------------------------------------------------
			     Loco - 6 Voltios
-----------------------------------------------------------------------------
Tabbed by:Jorge Wong (warlock)
Email:Darkstarwarlock@hotmail.com
Hey locos esta mas o menos pero escuchenla!!! Esta bien chingona esta rola!!!
Tuning:eadgbe

Intro
Play this 6 times
e|---------------------------------------------------------------------------|
B|---------------------------------------------------------------------------|
G|---------------------------------9-9-9-9-9----4-4-4-4-4--------------------|
D|--11-11-11-11-11----7-7-7-7-7----9-9-9-9-9----4-4-4-4-4--------------------|
A|--11-11-11-11-11----7-7-7-7-7----7-7-7-7-7----2-2-2-2-2--------------------|
E|--9--9--9--9--9-----5-5-5-5-5----------------------------------------------|

Chorus
Play this 4 times			bend
e|---------------------------------------------------------------------------|
B|-----------------------------------^-^-^-^---------------------------------|
G|------------4-4-4-4----------------9-9-9-9---------------------------------|
D|------------4-4-4-4----4-4-4-4-----9-9-9-9---------------------------------|
A|------------2-2-2-2----4-4-4-4-----7-7-7-7---------------------------------|
E|--0-0-0-0--------------2-2-2-2---------------------------------------------|
[ Tab from: http://www.guitaretab.com/numeric/6-voltios/132635.html ]
Verse 1
e|---------------------------------------------------------------------------|
B|---------------------------------------------------------------------------|
G|---------------------------------------------------------------------------|
D|-6-6-6-6--7-7-7-7--6-6-6-6--7-7-7-7--6-6-6-6--7-7-7-7--6-6-6-6--7-7-7-7----|
A|-6-6-6-6--7-7-7-7--6-6-6-6--7-7-7-7--6-6-6-6--7-7-7-7--6-6-6-6--7-7-7-7----|
E|-4-4-4-4--5-5-5-5--4-4-4-4--5-5-5-5--4-4-4-4--5-5-5-5--4-4-4-4--5-5-5-5----|

Voy...... A reventar!!!
Play this twice
e|---------------------------------------------------------------------------|
B|---------------------------------------------------------------------------|
G|---------------------------------------------------------------------------|
D|--9-9-9-9-9-9-9-9-9-9-9-9-9-9----11-11-11-11-11-11-11-11-11-11-11-11-11-11-|
A|--9-9-9-9-9-9-9-9-9-9-9-9-9-9----11-11-11-11-11-11-11-11-11-11-11-11-11-11-|
E|--7-7-7-7-7-7-7-7-7-7-7-7-7-7-----9--9-9--9-9--9--9--9--9--9--9--9--9-9-|

Then play verse 1 twice and repeat till u finish with a ring
e|---------------------------------------------------------------------------|
B|---------------------------------------------------------------------------|
G|---***---------------------------------------------------------------------|
D|---6-----------------------------------------------------------------------|
A|---6-----------------------------------------------------------------------|
E|---4-----------------------------------------------------------------------|

| /  slide up
| \  slide down
| h  hammer-on
| p  pull-off
| ~  vibrato
| +  harmonic
| x  Mute note
| ^  Bend
Related for Loco tab