Song name
# A B C D E F G H I J K L M N O P Q R S T U V W X Y Z

6 Voltios - Desde Que Te Conoci tab

-----------------------------------------------------------------------------
			   DESDE QUE TE CONOCI - 6 VOLTIOS
-----------------------------------------------------------------------------
Tabbed by:
Tuning:Standard - EADGBe

INTRO
e|---------------------------------------------------------------------|
B|---------------------------------------------------------------------|
G|---7-----------------------------------------------------------------|
D|---7--4-5-4---7--4-5-7---5--4-5-4---5--5-4---------------------------|
A|---5----------7----------5----------5------7-------------------------|
E|--------------5----------3----------3--------------------------------|

VERSES & CHORUS
e|---------------------------------------------------------------------|
B|---------------------------------------------------------------------|
G|-77777-----------------------77777-----------------------------------|
D|-77777--77777--55555--77777--77777--77777--55555--77777--------------|
A|-55555--77777--55555--77777--55555--77777--55555--77777--------------|
E|--------55555--33333--55555---------55555--33333--55555--------------|

PRE-CHORUS
e|---------------------------------------------------------------------|
B|---------------------------------------------------------------------|
G|---------------77777-------------------------------------------------|
D|-55555--77777--77777--99999--55555--77777----------------------------|
A|-55555--77777--55555--99999--55555--77777----------------------------|
E|-33333--55555---------77777--33333--55555----------------------------|

BRIDGE (BEFORE CHORUS)
e|---------------------------------------------------------------------|
B|---------------------------------------------------------------------|
G|--7777--9--7777--9--7777--9--12--12--11--9--11-----------------------|
D|--7777--9--7777--9--7777--9--12--12--11--9--11-----------------------|
A|--5555--7--5555--7--5555--7--10--10--9---7--9------------------------|
E|---------------------------------------------------------------------|

BRIDGE (AFTER CHORUS)
e|---------------------------------------------------------------------|
B|---------------------7---------------8--7----------------------------|
G|--7777--9--7---7--9-----7777--9--11--------9-------------------------|
D|--7777--9--7------------7777--9--11----------------------------------|
A|--5555--7--5------------5555--7--9-----------------------------------|
E|---------------------------------------------------------------------|


************************************
Tap to rate this tab
# A B C D E F G H I J K L M N O P Q R S T U V W X Y Z