Guitaretab - guitar tabs
Song name
# A B C D E F G H I J K L M N O P Q R S T U V W X Y Z

6 Voltios - Lejos tab

                                  6 voltios  Lejos
Tabbed by: Xxdiego92xX
e-mail: diego_salcedo92@hotmail.com

Intro:

|-------------------------------------------------------------------------------------|
|-------------------------------------------------------------------------------------|
|-------------------------------------------------------------------------------------|
|-0000000-222-000-222-44444444-777-555-4-5----------555-444-22----------444-222-0-2-0-| x2
|------------------------------------------22222222------------00000000---------------|
|-------------------------------------------------------------------------------------|

|-------------------------------------------------------------------------------------|
|-------------------------------------------------------------------------------------|
|--- (pickslide) ----777777----------444444-------------------------------------------|
|--- (pickslide) ----777777--444444--444444--555555-----------------------------------|
|--- (pickslide) ----555555--444444--222222--555555-----------------------------------|
|----------------------------222222----------333333-----------------------------------|

Verso 1:

|-------------------------------------------------------------------------------------|
|-------------------------------------------------------------------------------------|
|--7---------4--------------777777----------444444------------------------------------|
|--x----4----x----5----7----777777--444444--444444--555555----------------------------|
|--5----x----2----x----x----555555--444444--222222--555555----------------------------|
|-------2---------3----5------------222222----------333333----------------------------|

Coro:

|-------------------------------------------------------------------------------------|
|-------------------------------------------------------------------------------------|
|--7---------444444-------------------------------------------------------------------|
|--7----4----444444--555555-----------------------------------------------------------|
|--5----4----222222--555555-----------------------------------------------------------|
|-------2------------333333-----------------------------------------------------------|

Pre-verso:
[ Tab from: http://www.guitaretab.com/numeric/6-voltios/30852.html ]
|-------------------------------------------------------------------------------------|
|-------------------------------------------------------------------------------------|
|--777777----------444444------------------777777----------444444---------------------|
|--777777--444444--444444--555555----------777777--444444--444444--555555-------------|
|--555555--444444--222222--555555----------555555--444444--222222--555555-------2-----|
|----------222222----------333333-5-3-2-0----------222222----------333333-5-3-5-------|

Verso 1:

Coro:       

Verso 2:

|----------------------------------|
|----------------------------------|
|--777777----------444444----------|
|--777777--444444--444444--555555--|
|--555555--444444--222222--555555--|
|----------222222----------333333--|
                  
Pre-verso:  

Pre-verso 2:

|-------------------------------------------------------------------------------------|
|-------------------------------------------------------------------------------------|
|--777777-5-3-5-3-5---------4444-5-3-5-3-5--------------------------------------------|
|--777777-x-x-x-x-x-444444--4444-x-x-x-x-x-555555--7777777----------------------------|
|--555555-7-5-7-5-7-444444--2222-7-5-7-5-7-555555--7777777----------------------------|
|-------------------222222-----------------333333--5555555----------------------------|

|-------------------------------------------------------------------------------------|
|-------------------------------------------------------------------------------------|
|--777777-5-3-5-3-5---------4444-5-3-5-3-5--------------------------------------------|
|--777777-x-x-x-x-x-444444--4444-x-x-x-x-x-555555--7777777----------------------------|
|--555555-7-5-7-5-7-444444--2222-7-5-7-5-7-555555--7777777----------------------------|
|-------------------222222-----------------333333--5555555----------------------------|


Puente:

|--------------------------|
|--------------------------|
|-7-7/9--7-7/0---7-6-4-7-|
|-x-x/x--x-x/0---x-x-x-x-|
|-5-5/7--5-5/0---5-4-2-5-|
|--------------------------|

Coro:

Pre-verso:

Pre-verso 2:

Solo:

|-----------------------------------------------------------------------------|
|-------------------7-7-7-7-10-8-7-----------------------8-8-8-8-7------------|
|-7-7-7-7-9-7-9-7-9----------------9-7---------9-7-9-7-9-----------9-7----7-1-|
|--------------------------------------9-9-9-9-------------------------10-----|
|-----------------------------------------------------------------------------|
|-----------------------------------------------------------------------------|

Gracias!
Related for Lejos tab