Song name
# A B C D E F G H I J K L M N O P Q R S T U V W X Y Z

65daysofstatic - Await Rescue tab

-------------------------------------------------------------------------------
			     Await Rescue - 65daysofstatic
-------------------------------------------------------------------------------
Tabbed by: Tim West
Email: tim17west@hotmail.com

I can't believe there are almost no tabs for this band, they are awesome. I am basing 
purely on listening to the song and without knowing the proper tuning so some parts might 
wrong, but its better than nothing.
This is the general structure, it's not perfect, some notes may be wrong or out of time. 
you think somethings wrong tell me and i will edit it.

Tuning: Standard

Intro: Changes sometimes
e|-----------------------------------------------------------------------------------|
B|----------5------------------------7p5----------------------4-4-4-4-5-4---7-4--4-5-|
G|---6-6-6----------4---4h6---6-6-6------6---------4---4h6---------------------------|
D|------------6-6-6---6----------------------6-6-6---6--------------------6-----6----|
A|-----------------------------------------------------------------------------------|
E|-----------------------------------------------------------------------------------|

e|-----------------------------------------------------------------------------------|
B|----------55-----------------------7p5---------------------------------------------|
G|---6-6-6----------4---4h6---6-6-6------6---------4---4-6---------4---------4---4h6-|
D|------------6-6-6---6----------------------6-6-6---6-------4h6-6---6-4h6-6---6-----|
A|-----------------------------------------------------------------------------------|
E|-----------------------------------------------------------------------------------|

Verse
e|---------------------------------------------------------------------------|
B|4~-------------------------------------------------------------------------|
G|---------------------------13-13-13--11-1111-8---13-13-13--11-1111-8~/9----|
D|---6-6-6-7-6-4-6-7-6-------x--x--x---x--x-x--x---x--x--x---x--x-x--x--x----|
A|---6-6-6-7-6-4-6-7-6-------11-11-11--9--9-9--6---11-11-11--9--9-9--6~/7----|
E|---4-4-4-5-4-2-4-5-4h5p4---------------------------------------------------|

Pre-Chorus
e|--------------------------------------------------------------------------19\\---|
B|---------------------------------------------------------------------------------|
G|--11111111-1111--13-13-13-13--13-13--15-15-15-15--15-15--16-16-16--16-16--16\\---|
D|---------------------------------------------------------------------------------|
A|--9-9-9-9--9-9---11-11-11-11--11-11--13-13-13-13--13-13--14-14-14--14-14---------|
E|---------------------------------------------------------------------------------|

Chorus:
Guitar 1: Fast Strumming Rhythm
e|-9-----9-----------9-------------------------------------------------------|
B|-12----11----9-----9-------------------------------------------------------|
G|-11----11----11----11------------------------------------------------------|
D|-9-----9-----11----11------------------------------------------------------|
A|-9-----9-----9-----9-------------------------------------------------------|
E|---------------------------------------------------------------------------|

Guitar 2: Fast Constant Strumming
e|-9-----9-----9-----9-------------------------------------------------------|
B|-12----11----7-----9-------------------------------------------------------|
G|-11----11----6-----6-------------------------------------------------------|
D|---------------------------------------------------------------------------|
A|---------------------------------------------------------------------------|
E|---------------------------------------------------------------------------|

Back to Verse

Bridge: Pick Notes In The Chords(Not sure)
e|-2--2--0--0----------------------------------------------------------------|
B|-2--2--2--0----------------------------------------------------------------|
G|-4--4--4--4----------------------------------------------------------------|
D|-4--4--2--2----------------------------------------------------------------|
A|---------------------------------------------------------------------------|
E|---------------------------------------------------------------------------|

Build-up To Chorus
e|-----------------------------------------------------------------------------------|
B|--------------------------------7~/12----------------------------------------------|
G|-4---6---9---11--4---8---9---11----------------------------------------------------|
D|-----------------------------------------------------------------------------------|
A|-2---4---7---9---2---6---7---9-----------------------------------------------------|
E|-----------------------------------------------------------------------------------|

Back To Chorus

Outro Verse
e|------------------------------------7--------6---7-4-6-7---7------6---7-4-6-7---7--12-12--|
B|-------------------------------------------7---7----------------7---7--------------15b17--|
G|-----------------------------------------4--------------------4---------------------------|
D|------------------------------------------------------------------------------------------|
A|------------------------------------------------------------------------------------------|
E|--44-44-44-44-4-4-44-44-44-44-------------------------------------------------------------|

Play around with it and have fun.
| /  slide up
| \  slide down
| h  hammer-on
| p  pull-off
| ~  vibrato
| +  harmonic
| x  Mute note
===============================================================================
Tap to rate this tab
# A B C D E F G H I J K L M N O P Q R S T U V W X Y Z