Song name
# A B C D E F G H I J K L M N O P Q R S T U V W X Y Z

65daysofstatic - The Big Afraid tab

-------------------------------------------------------------------------------
			     The Big Afraid - 65daysofstatic
-------------------------------------------------------------------------------
A nice simple song from 65.

Tabbed by: Tim West
Email: tim17west@hotmail.com

Tuning: Standard
Guitar 1 Repeats until fade out at 1:34
Palm muted from 0:01 - 1:03 and 1:28 - 1:34
e|---------------------------------------------------------------------------|
B|---------------------------------------------------------------------------|
G|-----9-------9--------9------------9---------------------------------------|
D|-9-9-9-9-9-9-9--9-9-9-9--9-9-9-9-9-9---------------------------------------|
A|-7-7--7--7-7---7--7-7---7--7-7-7-7-----------------------------------------|
E|---------------------------------------------------------------------------|

Guitar 2
0:07
e|---0---0---0---0---0--(0)--0---0-------------------------------------------|
B|---------------------------------------------------------------------------|
G|---------------------------------------------------------------------------|
D|---------------------------------------------------------------------------|
A|---------------------------------------------------------------------------|
E|---------------------------------------------------------------------------|
0:25
e|---0-2-0-2-0-2-0-2-0-2-0-2-0-2-0-2-0-2-0-2-0-2-0-2-0-2-0-2-0-2-0-2-0-2-0-2-|
B|---------------------------------------------------------------------------|
G|---------------------------------------------------------------------------|
D|---------------------------------------------------------------------------|
A|---------------------------------------------------------------------------|
E|---------------------------------------------------------------------------|
1:03
e|-0-2-3-2-0-2-0-2-0-2-3-5-7-3-7-8-7-3-7-3-3-2-3-2-2-0-2-0-------------------|
B|---------------------------------------------------------------------------|
G|---------------------------------------------------------------------------|
D|---------------------------------------------------------------------------|
A|---------------------------------------------------------------------------|
E|---------------------------------------------------------------------------|
1:33
e|-0---0---0---0---0---0---0---0---0----------------------------------------------------|
B|--------------------------------------------------------------------------------------|
G|--------------------------------------------------------------------------------------|
D|--------------------------------------------------------------------------------------|
A|--------------------------------------------------------------------------------------|
E|--------------------------------------------------------------------------------------|

Thats all there is to it, there might occasionally be some B|-7- on guitar 1 during the 
part.
Enjoy

| /  slide up
| \  slide down
| h  hammer-on
| p  pull-off
| ~  vibrato
| +  harmonic
| x  Mute note
===============================================================================
Tap to rate this tab
# A B C D E F G H I J K L M N O P Q R S T U V W X Y Z