Song name
# A B C D E F G H I J K L M N O P Q R S T U V W X Y Z

65daysofstatic - The Last Home Recording tab

-------------------------------------------------------------------------------
		     The Last Home Recording - 65daysofstatic
-------------------------------------------------------------------------------
This is a slower song by 65.

Tabbed by: Tim West
Email: tim17west@hotmail.com

Tuning: Standard

Guitar 1
e|--------------------7/-10--------------------------------------------------------|
B|--10-8--7------------------------------------------------------------------------|
G|-----------7---------------------------------------------------------------------|
D|---------------------------------------------------------------------------------|
A|---------------------------------------------------------------------------------|
E|---------------------------------------------------------------------------------|

Guitar 2
e|---------------------------------------------------------------------------|
B|---------------------------------------------------------------------------|
G|-----------11/----7--------------------------------------------------------|
D|-----------11/----7--------------------------------------------------------|
A|-----------9-/----5--------------------------------------------------------|
E|-----------9-/----5--------------------------------------------------------|

| /  slide up
| \  slide down
| h  hammer-on
| p  pull-off
| ~  vibrato
| +  harmonic
| x  Mute note
===============================================================================
Tap to rate this tab
# A B C D E F G H I J K L M N O P Q R S T U V W X Y Z