Song name
# A B C D E F G H I J K L M N O P Q R S T U V W X Y Z

69 Chambers - The Day Of The Locust tab

69 Chambers - The Day of the Locust 
Tabbed by: sickparamour

Tuning: drop D

Intro
e|--------------------------------------------------|
B|--------------------------------------------------|
G|--------------------------------------------------|
D|---0~-4-3-0-4-3-1-13131(x3)---4-3-0-1-0-4-3-0-----|
A|--------------------------------------------------|
D|--------------------------------------------------|

e|--------------------------------------------------|
B|--------------------------------------------------|
G|--------------------------------------------------|
D|---0~-4-3-0-4-3-1--3-------0~-4-3-0-13-12-4-3-0---|   x2 
A|---0~-4-3-0-4-3-1--3(x3)---0~-4-3-0-13-12-4-3-0---|
D|---0~-4-3-0-4-3-1--3-------0~-4-3-0-13-12-4-3-0---|

Verse (0:34)
e|-----------------------------|        |--------|
B|-----------------------------|        |--------|
G|-----------------------------|        |--------|
D|---000000001~---00000000-----|   x4   |---0/---|
A|---000000001~---00000000-----|        |---0/---|
D|---000000001~---00000000-----|        |---0/---|

Pre-chorus (0:45)
e|--------------------------------------------------|
B|--------------------------------------------------|
G|--------------------------------------------------|
D|---0~-4-3-0-4-3-1--3-------0~-4-3-0-13-12-4-3-0---|
A|---0~-4-3-0-4-3-1--3(x3)---0~-4-3-0-13-12-4-3-0---|
D|---0~-4-3-0-4-3-1--3-------0~-4-3-0-13-12-4-3-0---|

Chorus (0:57)
e|-----------------------------------|
B|-----------------------------------|
G|-----------------------------------|
D|---5-------8-------3-------1-------|   x2
A|---5-------8-------3-------1-------|
D|---5(x8)---8(x8)---3(x8)---1(x8)---|

Ad lib (1:19)
e|----------------------------------------------|
B|----------------------------------------------|
G|----------------------------------------------|
D|---0~-4-3-0-4-3-1--3--0~---4-3-0-4-3-0---xx---|
A|---0~-4-3-0-4-3-1--3--0~---4-3-0-4-3-0---xx---|
D|---0~-4-3-0-4-3-1--3--0~---4-3-0-4-3-0---xx---|

Verse 2 (1:24)
e|-----------------------------|        |--------|
B|-----------------------------|        |--------|
G|-----------------------------|        |--------|
D|---000000001~---00000000-----|   x4   |---0/---|
A|---000000001~---00000000-----|        |---0/---|
D|---000000001~---00000000-----|        |---0/---|

Pre-chorus (1:37)
e|--------------------------------------------------|
B|--------------------------------------------------|
G|--------------------------------------------------|
D|---0~-4-3-0-4-3-1--3-------0~-4-3-0-13-12-4-3-0---|
A|---0~-4-3-0-4-3-1--3(x3)---0~-4-3-0-13-12-4-3-0---|
D|---0~-4-3-0-4-3-1--3-------0~-4-3-0-13-12-4-3-0---|

Chorus (1:48)
e|-----------------------------------|        |---------------------------|
B|-----------------------------------|        |---------------------------|
G|-----------------------------------|        |---------------------------| 
D|---5-------8-------3-------1-------|   x2   |---5(x8)---8(x8)---3(x8)---|
A|---5-------8-------3-------1-------|        |---5(x8)---8(x8)---3(x8)---|
D|---5(x8)---8(x8)---3(x8)---1(x8)---|        |---5(x8)---8(x8)---3(x8)---|
 
Ad lib (1:19)
e|--------------|   |------------------------------|
B|--------------|   |------------------------------|
G|--------------|   |------------------------------|
D|---11111111---|   |---0~-4-3-0-4-3-0--00000000---|
A|---11111111---|   |---0~-4-3-0-4-3-0--00000000---|
D|---11111111---|   |---0~-4-3-0-4-3-0--00000000---|
     xxxxx

e|---------------------------------------------|
B|---------------------------------------------|
G|---------------------------------------------|
D|---4-3-0-4-3-0--00000000-------4-3-0-4-3-0---|
A|---4-3-0-4-3-0--00000000(x2)---4-3-0-4-3-0---|
D|---4-3-0-4-3-0--00000000-------4-3-0-4-3-0---|
     
Bridge (2:33)
e|-----------------------------------|        |---------|
B|-----------------------------------|        |---------|
G|-----------------------------------|        |---------|
D|---5-------8-------3-------1-------|   x3   |---xxx---|
A|---5-------8-------3-------1-------|        |---xxx---|
D|---5(x8)---8(x8)---3(x8)---1(x8)---|        |---xxx---|
     x       x       x       x

Chorus (3:07)
e|-----------------------------------|
B|-----------------------------------|
G|-----------------------------------|
D|---5-------8-------3-------1-------|   x4
A|---5-------8-------3-------1-------|
D|---5(x8)---8(x8)---3(x8)---1(x8)---|

Outro (3:52)
e|--------------------------------------------------|
B|--------------------------------------------------|
G|--------------------------------------------------|
D|---0~-4-3-0-4-3-1--3-------0~-4-3-0-13-12-4-3-0---|
A|---0~-4-3-0-4-3-1--3(x3)---0~-4-3-0-13-12-4-3-0---|
D|---0~-4-3-0-4-3-1--3-------0~-4-3-0-13-12-4-3-0---|

| ~   let ring
| /   slide up
| x   Mute note
Tap to rate this tab
 
# A B C D E F G H I J K L M N O P Q R S T U V W X Y Z