Song name
# A B C D E F G H I J K L M N O P Q R S T U V W X Y Z

69 Eyes - Perfect Skin tab

Notes:Awesome song Perfect Skin by 69 Eyes.I found this tab in
another site.I made all the corrections necessary and here is
it for you!!!. Please note that it is difficault to play that
song.First of all,except the guitar there are and keyboards
in the basic riff.I have written only the guitar here.
Secondly,it is hard to understand when you should let the
notes to play and when not.Just listen carefully to the song,
so you will not have any problems.Thank you....

Tab Key:

/=slide-up
\=slide-down
()=ghost note
X=dead note
b=bend
r=release(or return bend)
h=hammer-on
p=pull-off
pm=palm mute

Intro(and the part:΄΄You got the perfect...΄΄):


e------------------------------------|
B------------------------------------|
G-0-7-5-0-3-2-0-3-5-5-3-0-3-5-5-5-3--|
D-0-7-5-0-3-2-0-3-5-5-3-0-3-5-5-5-3--|
A------------------------------------|
E------------------------------------|


e------------------------------------|
B-------------------6-6-6-6-6-6-6----|
G-0-7-5-0-3-2-0-3-5-5-5-5-5-5-5-5----|
D-0-7-5-0-3-2-0-3-5------------------|
A------------------------------------|
E------------------------------------|


e------------------------------------|
B------------------------------------|
G-0-7-5-0-3-2-0-3-5-5-3-0-3-5-5-5-3--|
D-0-7-5-0-3-2-0-3-5-5-3-0-3-5-5-5-3--|
A------------------------------------|
E------------------------------------|


e------------------------------------|
B-------------------6-6-6-6-6-6-6----|
G-0-7-5-0-3-2-0-3-5-5-5-5-5-5-5-5----|
D-0-7-5-0-3-2-0-3-5------------------|
A------------------------------------|
E------------------------------------|

e--------------------------------------|
B--------------------------------------|
G--------------------------------------|
D-5-------5-------5--5------5-------3--|
A-5-------5-------5--5------5--1-0--3--|
E-5-------5-------5--5------5-------3--|


e-------------------------------------|
B-------------------------------------|
G-------------------------------------|
D-5------5------3--3-------3-------3--|
A-5------5------3--3-------3--1-0--3--|
E-5------5------3--3-------3-------3--|

Verse:


e--------------------------------------|
B--------------------------------------|
G--------------------------------------|
D-5-------5-------5--5------5-------3--|
A-5-------5-------5--5------5--1-0--3--|
E-5-------5-------5--5------5-------3--|


e-------------------------------------|
B-------------------------------------|
G-------------------------------------|
D-5------5------3--3-------3-------3--|
A-5------5------3--3-------3--1-0--3--|
E-5------5------3--3-------3-------3--|


e--------------------------------------|
B--------------------------------------|
G--------------------------------------|
D-5-------5-------5--5------5-------3--|
A-5-------5-------5--5------5--1-0--3--|
E-5-------5-------5--5------5-------3--|


e-----------|
B-----------|
G-----------|
D-5------5--|
A-5------5--|
E-5------5--|


Chorus:

e-----------------------------|
B-----------------------------|
G---------------3-------------|
D-3----3--(15)--3----3--------|
A-3----3--(15)--1----3----1---|
E-3----3-------------3----1---|


e-----------------------|
B-----------------------|
G-----------------------|
D-----------------------|
A-3---5---5-X-X-5--x-x--|
E-3---5---5-X-X-5--x-x--|


e----------------------------|
B----------------------------|
G-----------------3----------|
D-----------------3-------5--|
A-5-5----5-----1--1---3---3--|
E-5-5----5-3-5--------3------|


e---------------------------|
B---------------------------|
G-5-------------------------|
D-5-------------------------|
A-3---5--5---3-3-3-3-3-3-3--|
E-----5--5---3-3-3-3-3-3-3--|


e-----------------|
B-----------------|
G-----------------|
D-8-7--7---5---5--|
A-6-5--5---5---5--|
E----------5---5--|


e----------------------|
B----------------------|
G----------------------|
D-5--5----5----5----5--|
A-5--5----5----5----5--|
E-5--5----5----5----5--|


Solo rythm:

e-------------------|
B-------------------|
G-3-3-3-3--5-5-5-5--|
D-3-3-3-3--5-5-5-5--|
A-3-3-3-3--5-5-5-5--|
E-------------------|


The End                                                Tabbed by:Elias Stasi
Tap to rate this tab
# A B C D E F G H I J K L M N O P Q R S T U V W X Y Z