Song name
# A B C D E F G H I J K L M N O P Q R S T U V W X Y Z

69 Eyes - Back In Blood tab

-------------------------------------------------------------------------------
			     Back in Blood - 69 Eyes
-------------------------------------------------------------------------------
Tabbed by: helsinkivampire
Email: cfontain@my.athens.edu

Tuning: Drop Db (Db Ab Db Gb Bb Eb)


    Intro

eb|-------------------------------------------------------------------|
Bb|-------------------------------------------------------------------|
Gb|-------------------------------------------------------------------|
Db|--5-NH---let-ring---feed-back--------------------------------------|
Ab|-------------------------------------------------------------------|
Db|-------------------------------------------------------------------|

    Palm Mute All Open notes On Top String...

eb|-----------------------------------------------------------------|
Bb|-----------------------------------------------------------------|
Gb|-------10----7-----12-----10--5---7---10--7--5-------------------|
Db|-------10----7-----12-----10--5---7---10--7--5-------------------|
Ab|-------8-----5-----10-----8---3---5---8---5--3--5-3-------3-5----|
Db|---0-0----0-0---0-0----0-0------0-------------------5-3-5--------|
                                                   P P P P P


Please rate... My first tab ever and many more to come from the 69 Eyes

new album "Back in Blood"


| NH - Natural Harmonic
| P - Palm Mute

===============================================================================
Tap to rate this tab
# A B C D E F G H I J K L M N O P Q R S T U V W X Y Z