Guitaretab - guitar tabs
Song name
# A B C D E F G H I J K L M N O P Q R S T U V W X Y Z

69 Eyes - Dead N Gone tab

-------------------------------------------------------------------------------
			     Dead N' Gone - The 69 Eyes
-------------------------------------------------------------------------------
Tabbed by: helsinkivampire

Email: cfontain@my.athens.edu


Tuning: Drop Db ( Db Ab Db Gb Bb Eb )




   Intro. x 2 ( Acoustic w/ Reverb) 


   Bazie loves using reverb... I know

   C#m
eb|----5---------5-6-5---------5------------|
Bb|------6-----------------------6------10br|
Gb|--5-----5-5h7-------7p5---5-----5h7------|
Db|-----------------------------------------|
Ab|-----------------------------------------|
Db|-----------------------------------------|




   Verse ( Acoustic )

   Guitar I

  C#m 
eb|-------------------------------------------------------------------------|
Bb|------------5h6-5-------------6-5----------------------------------------|
Gb|---7---7----------7-----7---7--------------------------------------------|
Db|-----7----7---------------7----------------------------------------------|
Ab|-5--------------------5--------------------------------------------------|
Db|-------------------------------------------------------------------------|

   Guitar II (w/reverb)

eb|------------------------------------------------------------------------|
Bb|------------------------------------------------------------------------|
Gb|-------------------------------------9br--------------------------------|
Db|------------------------------------------------------------------------|
Ab|------------------------------------------------------------------------|
Db|------------------------------------------------------------------------|


   Guitar I repeats verse for a second time but Guitar II does this...

[ Tab from: http://www.guitaretab.com/numeric/69-eyes/212267.html ]
eb|-------------------------------------12br-----------------------------|
Bb|------------------------------------------10--------------------------|
Gb|----------------------------------------------------------------------|
Db|----------------------------------------------------------------------|
Ab|----------------------------------------------------------------------|
Db|----------------------------------------------------------------------|




   Chorus ( these are the power chords used. u can figure the rhythm out)

eb|----------------------------------------------------------------------|
Bb|----------------------------------------------------------------------|
Gb|-xxxx--4------------5----4--7--9-7-9--5----4--------------------------|
Db|-xxxx--4--5--2-0-2--5----4--7--9-7-9--5----4--------------------------|
Ab|-xxxx--2--5--2-0-2--3----2--5--7-5-7--3----2--------------------------|
Db|----------5--2-0-2----------------------------------------------------|



 
   In Verse 2, Guitar I is still the same. However, Guitar II changes

   yet again with this at the end of Verse 2...


eb|---------------------------------------------------------------------|
Bb|---------------------------------------------------------------------|
Gb|--------------------------------------------10------------9let-------|
Db|--------------------------------------7h8p7-----7h8p7------ring------|
Ab|------------------------------------------------------8--------------|
Db|---------------------------------------------------------------------|



   Repeat Chorus ( Heavy Distortion )





   Interlude ( Acoustic w/ Reverb ) x 2


   " Just to lay here enlightened, just to hold it in"

eb|------------------------------------------------------------------|
Bb|--7h8p7h8p7h8p7h8--7h8p7------7h8p7h8p7--10-7---------------------|
Gb|-------------------------7----------------------------------------|
Db|------------------------------------------------------------------|
Ab|------------------------------------------------------------------|
Db|------------------------------------------------------------------|


   Repeat Chorus two more times and that's it...




Related for Dead N Gone tab
Dead N Gone chords by 69 Eyes