Song name
# A B C D E F G H I J K L M N O P Q R S T U V W X Y Z

69 Eyes - Hevioso tab

-------------------------------------------------------------------------------
			     Hevioso - The 69 Eyes
-------------------------------------------------------------------------------

Tabbed by: helsinkivampire

Email: cfontain@my.athens.edu


 * I love this song but its kinda annoying to play on guitar *

Tuning: Drop Db ( Db Ab Db Gb Bb Eb )

   Intro / Verse / Chorus  ( Heavy Distortion )

   "Palm Mute all notes on top string"

eb|-----------------------------------------------------------------------|
Bb|-----------------------------------------------------------------------|
Gb|-----------------------------------------------------------------------|
Db|-----5---7-----5----5---7-------3------3---5-----3-----3---3h5-5-------|
Ab|-----5---5-----5----5---5-------3------3---3-----3-----3---3---3-------|
Db|-0-0---0---0-0---0-0--0---0-0---3--3-3---3---3-3---3-3---3-------------|

   Keyboard Riff ( Played on guitar on "Hollywood Kills" live )

eb|--------------------------------------------------------------------|
Bb|--------------------------------------------------------------------|
Gb|----2-0---0--2-----2-0----0--2-----2-0---0--2-----2-0---------------|
Db|-0------3------3--------3------0-------3------3---------------------|
Ab|--------------------------------------------------------------------|
Db|--------------------------------------------------------------------|


   Pre-Chorus

   " All you innocent people..."

eb|-------------------------------------------------------------------|
Bb|-------------------------------------------------------------------|
Gb|-3----------5---7----------------3----------5----------------------|
Db|-3------3---5---7----5-----------3------3---5---5----5-------------|
Ab|-1------3---3---5----5-----------1------3---3---5----5-------------|
Db|--------3------------5------------------3-------5----5-------------|


   Bridge / Outro ( Heavy Distortion )

eb|--------------------------------------------------------------------------------------|
Bb|--------------------------------------------------------------------------------------|
Gb|--------------------------------------------------------------------------------------|
Db|--------------------------------------------------------------------------------------|
Ab|-----3-5------3------------0----------------------------------------------------------|
Db|-0-0------0-5----0-3--3-5--0----------------------------------------------------------|
Tap to rate this tab
# A B C D E F G H I J K L M N O P Q R S T U V W X Y Z