Song name
# A B C D E F G H I J K L M N O P Q R S T U V W X Y Z

69 Eyes - Wasting The Dawn tab

                    As recorded by The 69 Eyes
                     (From the 1999 Album WASTING THE DAWN)

Words and Music by The 69 Eyes
Transcribed by Whinger, Julian Fuhrmann

Gtr I (Db Ab Db Gb Bb Db) - 'Guitar I. - Bazie'
Gtr II (Db Ab Db Gb Bb Db) - 'Guitar II. - Timo-Timo'
Gtr III (Eb Ab Db Gb Bb Eb) - 'Clean Guitar'

 Intro
  Q=108
  N.C.
 4/4
  Gtr III
  E E E E E E E E   +E  E E E E E E E   +E  E E E E E E E
|---------------5-|-(5)-------------5-|-(5)-------------5-|
|-----6---5---6---|-------6---5---6---|-------6---5---6---|
|---7---7---7-----|-----7---7---7-----|-----7---7---7-----|
|-----------------|-------------------|-------------------|
|-----------------|-------------------|-------------------|
|-----------------|-------------------|-------------------|


  +E  E E E E E E E   +E  E E E E E E E
|-(5)-------------5-|-(5)-------------5---|
|-------6---5---6---|-------6---5---6-----|
|-----7---7---7-----|-----7---7---7-------|
|-------------------|---------------------|
|-------------------|---------------------|
|-------------------|---------------------|


   Chorus
    $
    D5                  F5
    +E  E E E E E E E   +E  E E E E E E E
||--(5)-------------5-|-(5)---------------|
||o-------6---5-6-5---|-------6---5-6---5-|
||------7---7---------|-----7---7-----7---|
||--------------------|-------------------|
||o-------------------|-------------------|
||--------------------|-------------------|
|
|   Gtrs I, II
|    E  E E E E E E E    E  E E E E E E E
||--------------------|-------------------|
||o-------------------|-------------------|
||--------------------|-------------------|
||---0--0-0-0-0-0-0-0-|--3--3-3-3-3-3-3-3-|
||o--0--0-0-0-0-0-0-0-|--3--3-3-3-3-3-3-3-|
||---0--0-0-0-0-0-0-0-|--3--3-3-3-3-3-3-3-|


  A5                  Bb5       F5
  +E  E E E E E E E   +E  E E E E E E E
|-----------------5-|-(5)-----------------||
|-(5)---6---5-6-5---|-------6---5-6-5----o||
|-----7---7---------|-----7---7-------7---||
|-------------------|---------------------||
|-------------------|--------------------o||
|-------------------|---------------------||
|
|  E  E E E E E E E    E  E E E E E E E
|-------------------|---------------------||
|-------------------|--------------------o||
|-------------------|---------------------||
|--7--7-7-7-7-7-7-7-|--8--8-8-8-3-3-3-3---||
|--7--7-7-7-7-7-7-7-|--8--8-8-8-3-3-3-3--o||
|--7--7-7-7-7-7-7-7-|--8--8-8-8-3-3-3-3---||


  D5
  E E E E E E E E    E  E E E E E E E
|-----5-------5---|-------5-------5---|
|---6---6---6---6-|-----6---5---6---5-|
|-7-------6-------|--5--------4-------|
|-----------------|-------------------|
|-----------------|-------------------|
|-----------------|-------------------|
|
| W                 +W
|-----------------|-------------------|
|-----------------|-------------------|
|-----------------|-------------------|
|-0---------------|-(0)---------------|
|-0---------------|-(0)---------------|
|-0---------------|-(0)---------------|


   Verse
    N.C.
    E E Q.   E E E   E E Q.   E E E   E E Q.   E E E
||-----------------|----------------|----------------|
||o----------------|----------------|----------------|
||------2------0-2-|-----2------0-2-|-----3------2-3-|
||----0------0-----|---0------0-----|---0------0-----|
||o-0--------------|-0--------------|-1--------------|
||-----------------|----------------|----------------|
|
|   W                W                W
||-----------------|----------------|----------------|
||o----------------|----------------|----------------|
||-----------------|----------------|----------------|
||-----------------|----------------|----------------|
||o----------------|----------------|----------------|
||-----------------|----------------|----------------|


  E E Q.   E E E   E E Q.   E E E   E E Q.   E E E
|----------------|----------------|----------------|
|----------------|----------------|----------------|
|-----2------0-2-|-----2------0-2-|-----2------0-2-|
|---0------0-----|---0------0-----|---0------0-----|
|-0--------------|-0--------------|-0--------------|
|----------------|----------------|----------------|


  E E Q.   E E E   E E Q.   E E E
|----------------|-----------------||
|----------------|----------------o||
|-----3------2-3-|-----2------0-2--||
|---0------0-----|---0------0------||
|-1--------------|-0--------------o||
|----------------|-----------------||


 Pre-Chorus
                                                     D.S.
  A5            F5            A5            Bb5   C5
  Gtrs I, II
  Q  Q  Q  Q    Q  Q  Q  Q    Q  Q  Q  Q    Q  Q   Q   Q
|-------------|-------------|-------------|---------------|
|-------------|-------------|-------------|---------------|
|-------------|-------------|-------------|---------------|
|-7--7--7--7--|-3--3--3--3--|-7--7--7--7--|-8--8--10--10--|
|-7--7--7--7--|-3--3--3--3--|-7--7--7--7--|-8--8--10--10--|
|-7--7--7--7--|-3--3--3--3--|-7--7--7--7--|-8--8--10--10--|


   Chorus
    $$
    D5                F5
    Gtr III
    E E E E E E E E   +E  E E E E E E E
||----------------5-|-(5)---------------|
||o-----6---5-6-5---|-------6---5-6---5-|
||----7---7---------|-----7---7-----7---|
||------------------|-------------------|
||o-----------------|-------------------|
||------------------|-------------------|
|
|   Gtrs I, II
|   E E E E E E E E    E  E E E E E E E
||------------------|-------------------|
||o-----------------|-------------------|
||------------------|-------------------|
||--0-0-0-0-0-0-0-0-|--3--3-3-3-3-3-3-3-|
||o-0-0-0-0-0-0-0-0-|--3--3-3-3-3-3-3-3-|
||--0-0-0-0-0-0-0-0-|--3--3-3-3-3-3-3-3-|


                            To Dbl. Coda
  A5                  Bb5       F5
  +E  E E E E E E E   +E  E E E E E E E   4x
|-----------------5-|-(5)-----------------||
|-(5)---6---5-6-5---|-------6---5-6-5----o||
|-----7---7---------|-----7---7-------7---||
|-------------------|---------------------||
|-------------------|--------------------o||
|-------------------|---------------------||
|
|  E  E E E E E E E    E  E E E E E E E   4x
|-------------------|---------------------||
|-------------------|--------------------o||
|-------------------|---------------------||
|--7--7-7-7-7-7-7-7-|--8--8-8-8-3-3-3-3---||
|--7--7-7-7-7-7-7-7-|--8--8-8-8-3-3-3-3--o||
|--7--7-7-7-7-7-7-7-|--8--8-8-8-3-3-3-3---||


 Guitar Solo
  D5         A5                  F5
  Gtr I
  W          H       +E  E E E   Q   E Q   Q   E
|----------|-------------------|-----------------|
|----------|-------------------|-----------------|
|----------|-------------------|-----------------|
|----------|-------------7-5---|-5---------------|
|----------|-7-------(7)-----8-|-----8-7---8---5-|
|----------|-------------------|-----------------|
|
| Gtr II
| W          E E E E  E  E E E   E E E E E E E E
|----------|-------------------|-----------------|
|----------|-------------------|-----------------|
|----------|-------------------|-----------------|
|-0--------|-7-7-7-7--7--7-7-7-|-3-3-3-3-3-3-3-3-|
|-0--------|-7-7-7-7--7--7-7-7-|-3-3-3-3-3-3-3-3-|
|-0--------|-7-7-7-7--7--7-7-7-|-3-3-3-3-3-3-3-3-|


  A5                  Bb5     C5
  H       +E  E E E   Q   E E +Q      Q
|-------------------|----------------------|
|-------------------|----------------------|
|-------------------|----------------------|
|-------------7-5---|-5-----5-(5)-----7----|
|-7-------(7)-----8-|-----8----------------|
|-------------------|----------------------|
|
| E E E E  E  E E E   E E E E  E   E  E  E
|-------------------|----------------------|
|-------------------|----------------------|
|-------------------|----------------------|
|-7-7-7-7--7--7-7-7-|-8-8-8-8-10--10-10-10-|
|-7-7-7-7--7--7-7-7-|-8-8-8-8-10--10-10-10-|
|-7-7-7-7--7--7-7-7-|-8-8-8-8-10--10-10-10-|


  A5                  F5                B5
  H       +E  E E E   Q   E Q   Q   E   H       +E  E E E
|-------------------|-----------------|-------------------|
|-------------------|-----------------|-------------------|
|-------------7-5---|-5---------------|-------------7-5---|
|-7-------(7)-7-5-8-|-5---8-7---8---5-|-7-------(7)-7-5-8-|
|-7-------(7)-----8-|-----8-7---8---5-|-7-------(7)-----8-|
|-------------------|-----------------|-------------------|
|
| E E E E  E  E E E   E E E E E E E E   E E E E  E  E E E
|-------------------|-----------------|-------------------|
|-------------------|-----------------|-------------------|
|-------------------|-----------------|-------------------|
|-7-7-7-7--7--7-7-7-|-3-3-3-3-3-3-3-3-|-7-7-7-7--7--7-7-7-|
|-7-7-7-7--7--7-7-7-|-3-3-3-3-3-3-3-3-|-7-7-7-7--7--7-7-7-|
|-7-7-7-7--7--7-7-7-|-3-3-3-3-3-3-3-3-|-7-7-7-7--7--7-7-7-|


                        D.S.S. al Dbl. Coda
  Bb5     C5                D5
                 |-3-|
  Q   E Q     E  S S S  E   W          +W
|-------------------------|----------|---------|
|-------5--------5-6-5----|----------|---------|
|-5---7-5-----7--5-7-5--5-|-7--------|-(7)-----|
|-5---7-------7---------5-|-7--------|-(7)-----|
|-------------------------|----------|---------|
|-------------------------|----------|---------|
|
| E E E E  E  E  E      E   W          +W
|-------------------------|----------|---------|
|-------------------------|----------|---------|
|-------------------------|----------|---------|
|-8-8-8-8-10-10-10-----10-|-0--------|-(0)-----|
|-8-8-8-8-10-10-10-----10-|-0--------|-(0)-----|
|-8-8-8-8-10-10-10-----10-|-0--------|-(0)-----|


 Interlude
  &&
  D5
  Gtr III
  E E E E E E E E   +E  E E E E E E E   +E  E E E E E E E   +E  E E E E E E E
|---------------5-|-(5)-------------5-|-(5)-------------5-|-(5)-------------5-|
|-----6---5---6---|-------6---5---6---|-------6---5---6---|-------6---5---6---|
|---7---7---7-----|-----7---7---7-----|-----7---7---7-----|-----7---7---7-----|
|-----------------|-------------------|-------------------|-------------------|
|-----------------|-------------------|-------------------|-------------------|
|-----------------|-------------------|-------------------|-------------------|
|
| Gtrs I, II
| W                 +W                  +W                  +W
|-----------------|-------------------|-------------------|-------------------|
|-----------------|-------------------|-------------------|-------------------|
|-----------------|-------------------|-------------------|-------------------|
|-0---------------|-(0)---------------|-(0)---------------|-(0)---------------|
|-0---------------|-(0)---------------|-(0)---------------|-(0)---------------|
|-0---------------|-(0)---------------|-(0)---------------|-(0)---------------|


    N.C.
    +E  E E E E E E E   +E  E E E E E E E
||--(5)-------------5-|-(5)-------------5-|
||o-------6---5---6---|-------6---5---6---|
||------7---7---7-----|-----7---7---7-----|
||--------------------|-------------------|
||o-------------------|-------------------|
||--------------------|-------------------|


  +E  E E E E E E E   +E  E E E E E E E
|-(5)-------------5-|-(5)-------------5---||
|-------6---5---6---|-------6---5---6----o||
|-----7---7---7-----|-----7---7---7-------||
|-------------------|---------------------||
|-------------------|--------------------o||
|-------------------|---------------------||


   Out-Chorus
    D5                F5
    E E E E E E E E   +E  E E E E E E E
||----------------5-|-(5)---------------|
||o-----6---5-6-5---|-------6---5-6---5-|
||----7---7---------|-----7---7-----7---|
||------------------|-------------------|
||o-----------------|-------------------|
||------------------|-------------------|
|
|   Gtrs I, II
|   E E E E E E E E    E  E E E E E E E
||------------------|-------------------|
||o-----------------|-------------------|
||------------------|-------------------|
||--0-0-0-0-0-0-0-0-|--3--3-3-3-3-3-3-3-|
||o-0-0-0-0-0-0-0-0-|--3--3-3-3-3-3-3-3-|
||--0-0-0-0-0-0-0-0-|--3--3-3-3-3-3-3-3-|


  A5                  Bb5       F5
  +E  E E E E E E E   +E  E E E E E E E   4x
|-----------------5-|-(5)-----------------||
|-(5)---6---5-6-5---|-------6---5-6-5----o||
|-----7---7---------|-----7---7-------7---||
|-------------------|---------------------||
|-------------------|--------------------o||
|-------------------|---------------------||
|
|  E  E E E E E E E    E  E E E E E E E   4x
|-------------------|---------------------||
|-------------------|--------------------o||
|-------------------|---------------------||
|--7--7-7-7-7-7-7-7-|--8--8-8-8-3-3-3-3---||
|--7--7-7-7-7-7-7-7-|--8--8-8-8-3-3-3-3--o||
|--7--7-7-7-7-7-7-7-|--8--8-8-8-3-3-3-3---||


  D5
  Gtrs I, II
  W          +W           +W           +W
|----------|------------|------------|--------*|
|----------|------------|------------|--------*|
|----------|------------|------------|--------*|
|-0--------|-(0)--------|-(0)--------|-(0)----*|
|-0--------|-(0)--------|-(0)--------|-(0)----*|
|-0--------|-(0)--------|-(0)--------|-(0)----*|


Duration Legend
---------------
W - whole; H - half; Q - quarter; E - 8th; S - 16th; T - 32nd; X - 64th; a - acciaccatura
+ - note tied to previous; . - note dotted; .. - note double dotted
Uncapitalized letters represent notes that are staccato (1/2 duration)
Irregular groupings are notated above the duration line
Duration letters will always appear directly above the note/fret number it represents the
duration for.  Duration letters with no fret number below them represent rests.  Multi-
bar rests are notated in the form Wxn, where n is the number of bars to rest for.  Low
melody durations appear below the staff

Tablature Legend
----------------
 h   - hammer-on
 p   - pull-off
 b   - bend
 pb  - pre-bend
 r   - bend release (if no number after the r, then release immediately)
 /\  - slide into or out of (from/to "nowhere")
 s   - legato slide
 S   - shift slide
  - natural harmonic
[n]  - artificial harmonic
n(n) - tapped harmonic
 ~   - vibrato
 tr  - trill
 T   - tap
 TP  - trem. picking
 PM  - palm muting
\n/  - tremolo bar dip; n = amount to dip
 \n  - tremolo bar down
 n/  - tremolo bar up
/n\  - tremolo bar inverted dip
 =   - hold bend; also acts as connecting device for hammers/pulls
 <>  - volume swell (louder/softer)
 x   - on rhythm slash represents muted slash
 o   - on rhythm slash represents single note slash

Misc Legend
-----------
 |  - bar
||  - double bar
||o - repeat start
o|| - repeat end
*|  - double bar (ending)
 :  - bar (freetime)
 $  - Segno
 &  - Coda
Tempo markers -  = BPM(8/16=s8/s16), where s8 = swing 8ths, s16 = swing 16ths
Tap to rate this tab
# A B C D E F G H I J K L M N O P Q R S T U V W X Y Z