Song name
# A B C D E F G H I J K L M N O P Q R S T U V W X Y Z

6cyclemind - Kung Wala Na Nga tab

Song Title: Kung Wala Na Nga
Artist/Band: 6cyclemind
Tabbed by: darkshadow871
dark_shadow871@rocketmail.com
hallowed_rhyhthm@yahoo.com


this is 95% accurately.....



E|---------3-5-7-------5-7-8--------7-8--10-12-10-10-12-14~--|
B|---3-5-7-------5-7-8-------7-8-10--------------------------|
G|-----------------------------------------------------------|
D|-----------------------------------------------------------|
A|-----------------------------------------------------------|
E|-----------------------------------------------------------|



E|---15~-14~-----------------------------------------------------------|
B|-----------15~-10-10-10-10-10-10-10-10-10-10-10-10-10-10-10-10--15---|
G|---------------------------------------------------------------------|
D|---------------------------------------------------------------------|
A|---------------------------------------------------------------------|
E|---------------------------------------------------------------------|



hope you like it...... ^_^
Tap to rate this tab
 
# A B C D E F G H I J K L M N O P Q R S T U V W X Y Z